Song name
# A B C D E F G H I J K L M N O P Q R S T U V W X Y Z

Chris Thomas King - Hard Time Killing Floor Blues tab

So this is my take on the Chris Thomas King version of Hard Time Killing Floor Blues. I
out the whole song because there is a pattern, but I felt that each time there were
variations on the riffs he was playing. This is the first song I've ever tabbed out by 
but I'm fairly sure that most of it is correct. Listen to the track for timing.

Tuning- top and bottom E strings tuned a step down to D

D-----------------------0------------------------------------------------|
B-------------------------0----------------------------------------------|
G---------------------------0--------------------------------------------|
D--3-0-2-0--------0-----------0-------0-3------------3-0-----------------|
A-----------3-0-2-----------------0-3-----0-3-0-3-0----------------------|
D-------------------0-------------------------------------0-3------------|


D-----------------------------------------------------------0-------0----|
B---------------------------------0-------------------------1-3-----1----|
G---------------------------------0-------------------0-2-0-----2-0------|
D------------------5\40----5/7\50-----5\40---5\40------------------------|
A-0-3-0-2-0-------------0-----------------0------0-----------------------|
D------------3-0---------------------------------------------------------|


D------------------------------------------------------------------------|
B------------------------------------------------------------------------|
G------------------------------------------------------------------------|
D------0-3-3----------3-0------------------------------------------------|
A--0-2-------0-0-2-0-----------0-3-0-2-0---------------------------------|
D--------------------------0-3------------3-0----------------------------|

riff A: repeats while vocalist is humming
D---------------------|
B----------------0----|
G----------------0----|  :
D-5\40----5/7\50------|
A------0--------------|
D---------------------|


D------------------------------------------------------------------------|
B------------------------------------------------------------------------|
G------------------------------------------------------------------------|
D-5-0-------0-3-3-0-------3-0--------------------------------------------|
A------0-3----------0-3-0---------0-3-3-0--------------------------------|
D-----------------------------0-3---------3-0----------------------------|

play riff A


D------------------------------------------------------------------------|
B------------------------------------------------------------------------|
G------------------------------------------------------------------------|
D-----0-3------0-3-0-----------------------------------------------------|
A-0-3-----0-3-----------------3-0-2-0--V---------------------------------|
D----------------------0-3-0-----------3-0-3-0---------------------------|

play riff A

D------------------------------------------------------------------------|
B------------------------------------------------------------------------|
G------------------------------------------------------------------------|
D------0-3-----0-3-0-----------------------------------------------------|
A--0-3-----0-3---------------3-0-2-0---0-2-0-----------------------------|
D---------------------0-3-0----------3--------3-0------------------------|

play riff A

D-----------------------0-------0----------------------------------------|
B-----------------------1-3-----1----------------------------------------|
G-----------------0-2-0-----2-0------------------------------------------|
D----0---0---0---------------------------0-3-----0-2-----0-3-2---0-------|
A--3---2---1---0--------------------0-3------0-3-----0-3-------3---------|
--------------------------------------------------------------------0-3--|

D------------------------------------------------------------------------|
B------------------------------------------------------------------------|
G------------------------------------------------------------------------|
D------------------------------------------------------------------------|
A--0-3-0-2-0-----0-2-0---------------------------------------------------|
D-------------3---------3-0----------------------------------------------|

play riff A

D------------------------------------------------------------------------|
B------------------------------------------------------------------------|
G------------------------------------------------------------------------|
D-------0-3-------3-0----------------------------------------------------|
A--0-3------0-3-0--------------3-0-2-0-----0-2-0-------------------------|
D-----------------------0-3-0-----------3----------3-0-------------------|

play riff A

D------------------------------------------------------------------------|
B------------------------------------------------------------------------|
G------------------------------------------------------------------------|
D---------0---0---0------------------------------------------------------|
A-0-3-0-3---2---1---0----------------------------------------------------|
D------------------------------------------------------------------------|
Tap to rate this tab
# A B C D E F G H I J K L M N O P Q R S T U V W X Y Z