Song name
# A B C D E F G H I J K L M N O P Q R S T U V W X Y Z

Chris Tomlin - Everlasting God chords

Highlighted       Show chord diagrams
Everlasting God
Chris Tomlin
Capo 1 (Key C#)

Intro & Verse

E|-----------------------------------------------------------------------------------|
B|----------1--1---------------------------------------------------------------------|
G|-----0----0-----------0----0--0--0--------0--0----0--0--------------0----0--0------|
D|-----0h2-----------2--2h3--3--2--0-----0--2--2h3--3--2--0-----0--2--2h3--3--2--0---|
A|--3-------------3------------------3----------------------3----------------------3-|
E|-----------------------------------------------------------------------------------|
(Fret 1 is capo'd; it's just a C shape chord)

Intro - Play the C shape riff 2 times with solo acoustic guitar

Verse 1 (0:20)
Strength will rise as we wait upon the Lord
We will wait upon the Lord
We will wait upon the Lord
Strength will rise as we wait upon the Lord
We will wait upon the Lord
We will wait upon the Lord

Pre Chorus 1 (0:39)
C   F    C   F     G   Am G
Our God, You reign for-ev-er
C   F     C   F      G  Am    G
Our hope, our Strong De-liver-er

Chorus Guitars
Electric Guitar 1
E|--0--0--0----0--0--0----0--0--0----0--0--0--|
B|--1--3--1----1--3--1----1--3--1----1--3--1--|
G|--0--0--0----2--2--2----2--2--2----2--2--2--|
D|--2--2--2----3--3--3----2--2--2----3--3--3--|
A|--3--3--3---------------0--0--0-------------|
E|--------------------------------------------|

Electric Guitar 2
E|----------------------------------------------|
B|----------------------------------------------|
G|----------------------------------------------|
D|------------------------------6---------------|
A|--6--8--4----6--8-------6--8--------6--8--4---|
E|-------------------6--------------------------|

Chorus 1 (0:55)
C                C       F    F6 F
You are the ever-lasting God
                 Am   Asus4 Am
The everlasting God
                      F   F6    F 
You do not faint you won't grow weary

Intro 2 (1:15)

Verse 2 (1:25)
Strength will rise as we wait upon the Lord
We will wait upon the Lord
We will wait upon the Lord
Strength will rise as we wait upon the Lord
We will wait upon the Lord
We will wait upon the Lord

Pre Chorus 2 (1:44)
C   F    C   F     G   Am G
Our God, You reign for-ev-er
C   F     C   F      G  Am    G
Our hope, our Strong De-liver-er


Chorus 2 (2:00)
C                       F
You are the everlasting God
                 Am
The everlasting God
                      F
You do not faint you won't grow weary

C                          F
You're the defender of the weak
                     Am
You comfort those in need
                  F
You lift us up on wings like eagles


Intro (2:39)

Pre Chorus 3 (2:49)
C   F    C   F     G   Am G
Our God, You reign for-ev-er
C   F     C   F      G  Am    G
Our hope, our Strong De-liver-er

Chorus 3 (3:05)
C                       F
You are the everlasting God
                 Am
The everlasting God
                      F
You do not faint you won't grow weary

Chorus 3 - continued (3:25)
C                          F
You're the defender of the weak
                     Am
You comfort those in need
                  F
You lift us up on wings like eagles


Chorus 4 (3:44)
C                     F
                 From Everlasting
                     Am
                  to everlasting
            F
God You are everlasting

Intro (4:04) - Only one time

End on C
Tap to rate this tab
 
# A B C D E F G H I J K L M N O P Q R S T U V W X Y Z