Song name
# A B C D E F G H I J K L M N O P Q R S T U V W X Y Z

Chris Wood - Hollow Point tab

|----------------------------------------------------------------|
|-Artist----:-Chris-Wood-----------------------------------------|
|-Track-----:-Hollow-Point---------------------------------------| 
|-Album-----:-Handmade-Life--------------------------------------|
|-Website---:-http://www.chriswoodmusic.co.uk/-------------------|
|-Tabbed-by-:-Brother-Edward-------------------------------------| 
|-Comment---:-This-song-is-amazing-!!!-Love-It-------------------|
|----------------------------------------------------------------|


e|---------------------------------------------------------------------------|
B|---------------------------------------------------------------------------|
G|-----------0----2--0-------------3s5-5--2--0------0h2-0-------0-2-3--------|
D|-----0h3-------------3--0--------------------2s3-----------2s3-------3-0h3-|
A|---3-----------------------h3-3--------------------------------------------|
E|---------------------------------------------------------------------------|

e|---------------------------------------------------------------------------|
B|---------------------------------------------------------------------------|
G|------------------0-------------------0----2--0-------------3s5-5--2--0----|
D|0------------0--3---3-----------0h3-------------3--0---------------------3-|
A|---3-3--2s3------------1h3-3--3-----------------------3-3------------------|
E|---------------------------------------------------------------------------|

e|---------------------------------------------------------------------------|
B|---------------------------------------------------------------------------|
G|--0h2-0----3s5-5--2--0-------0-------------------0-------------------------|
D|-------------------------2s3--3--0-----------0-3---3-----------------------|
A|------------------------------------3-3----3---------1h3-3-----------------|
E|---------------------------------------------------------------------------|
Tap to rate this tab
# A B C D E F G H I J K L M N O P Q R S T U V W X Y Z