Song name
# A B C D E F G H I J K L M N O P Q R S T U V W X Y Z

Christ August - This Side Of Heaven tab

this one was played by Chris on Klove Radio
you can watch it here: http://www.youtube.com/watch?v=f4aYSYCehCo

( )-this means you can play this note or not




Part I (this is basically the intro, verse and chorus)

e|--------------------|---------------|---------------|--------------------|
B|-12-12----12--15----|-8-8--8--12----|-5-5---5--7----|-12-12----12--13----|
G|---0-----0--0---(0)-|--0--0-0---(0)-|--0---0-0--(0)-|---0-----0--0---(0)-|
D|--------------------|---------------|---------------|--------------------|
A|-10----10-----14----|-7--7----10----|-3---3----5----|-10----10-----12----|
E|--------------------|---------------|---------------|--------------------|

(repeat)

Part 2 (this the part where Chris sings "I remember how He showed me.....")

e|----------|--------|--------|----------|
B|-12----10-|-8----7-|-5----7-|-12----13-|
G|----------|--------|--------|----------|
D|----------|--------|--------|----------|
A|-10-----9-|-7----5-|-3----5-|-10----12-|
E|----------|--------|--------|----------|


e|----------|--------|--------|--------------------|
B|-12----10-|-8----7-|-5---4--|-12-12----12--13----|
G|----------|--------|--------|---0-----0--0---(0)-|
D|----------|--------|--------|--------------------|
A|-10-----9-|-7----5-|-3---3--|-10----10-----12----|
E|----------|--------|--------|--------------------|

BACK TO PART 1




and that was it. just refer to the link for the timing and style of playing the song.

feel free to message me if there is/are missing or wrong note(s) in the tab.

enjoy.

God Bless.
Tap to rate this tab
# A B C D E F G H I J K L M N O P Q R S T U V W X Y Z