Guitaretab - guitar tabs
Song name
# A B C D E F G H I J K L M N O P Q R S T U V W X Y Z

Christian Death - Silent Thunder tab

From  Sun Feb  6 04:15:57 1994
Delivery-Date: Sun, 06 Feb 1994 04:16:02 +0000
Received: from by (5.65/TCD/1.36)
	id AA16504; Sun, 6 Feb 94 04:15:57 GMT
Received: from ( by (4.1/SMHUB41);
	id AA25754; Sat, 5 Feb 94 23:15:54 EST for 
Received: by (4.1/SUB16);
	id AA16016; Sat, 5 Feb 94 23:15:53 EST for
Date: Sat, 5 Feb 94 23:15:53 EST
Message-Id: <>
Status: REO

John... did some work.. some may not be fully correct.
i've tried to put "?" where i dont think or know if it's right.

Silent Thunder

main riff
e -12--12---12----11----------------
b ----13---13---13-----------------

or instead of b13 you can slide to e8 (hell on the finger though)

chords (the 2nd 2 arent right, but they'd work)
e ----5-|-----|----------------------
b ------|---6-|---5-------------------
g ---7--|--7--|--7---------------------
d --7---|-7---|-7----------------------

break (1st time, last 2 notes not right?)
e --10--13--12-13-12-10---10----------------
b ----10----------------13----8--10----------
g -----------------------------------7--------

break (2nd time, correct)
e --10--13--12-13-12-10---15----10------
b ----10----------------13----13----8----

Aegis (opening chord, last 3 notes i don't like, but theyre close)

b ---8-8-8--10---------------------
g --9-9-9--9----------------------
d -7------7---------------------

oh well, you take your best shot, k?
[ Tab from: ]
Related for Silent Thunder tab