Song name
# A B C D E F G H I J K L M N O P Q R S T U V W X Y Z

Christina Aguilera - Beautiful tab


  E/----2-----2-----2-----2-----2-----2-----2-----2----------|
  B/----3-----3-----3-----3-----1-----1-----1-----1----------|
  G/----2-----2-----2-----2-----2-----2-----2-----2----------|
  D/----0-----0-----0-----0-----0-----0-----0-----0----------|
  A/---------------------------------------------------------|
  E/---------------------------------------------------------|


  E/--------------------------------------------0------------|
  B/----0-----0-----0-----0-----3-----3-----3-----3----------|
  G/----0-----0-----0-----0-----3-----3-----3-------3--------|
  D/----2-----2-----2-----2-----2-----2----------------------|
  A/----2-----2-----2-----2-----3-----3-----3----------------|
  E/---------------------------------------------------------|
Tap to rate this tab
# A B C D E F G H I J K L M N O P Q R S T U V W X Y Z