Song name
# A B C D E F G H I J K L M N O P Q R S T U V W X Y Z

Christopher Cross - Sailing tab

Christopher Cross:  Sailing (acoustic version)

Tabbed by: D. Perkins

Tuning: DADF#AD        T = Thumb       o = Harmonics   ( ) = optional

Instrumental Intro:

			                  o				                     o
D |--0---0--0-----7~---4p2---0--2-2--0-(12)~|
A |--0---4-----0-------0-----0--2-2--0------|
F#|--0---3-----0-----------0----2----0------| 
D |--2---2---------------------------2------|
A |--2---4-------------0--------4----0------|
D |--0---------0---------------------0------|

INTRO:

D |------------------------------------|
A |--0------0--------0-------0---------|
F#|----2--------2--------0-------0---0-| (4x)
D |------2--------2--------2-------2---|
A |-----------0----------------0-------|
D |--0-----------------0---------------|

D |------------------------------------|
A |--0------0--------2-------2---------|
F#|----2--------2--------3-------3---3-| (2x)
D |------2--------2--------2-------2---|
A |------------------------------------|
D |--4--------4--------4-------4-------|

D |------------------------------------|
A |--2------2--------4-------4---------|
F#|----2--------2--------3-------3---3-| (2x)
D |------0--------0--------0-------0---|
A |-----------0----------------0-------|
D |--0-----------------0---------------|

D |------------------------------------|
A |--2------2--------4-------4---------|
F#|----2--------2--------3-------3---3-| (2x)
D |------2--------2--------2-------2---|
A |-----------0----------------0-------|
D |--2-----------------2---------------|
	     T			                T

1st and 2nd VERSE: (same as intro)     (2x each only)

CHORUS:

D |--2------2--------2--------2---------|
A |----2--------2--------4--------4---4-|
F#|------2--------2--------3--------3---| 
D |-----------2-----------------2-------|
A |--0-----------------0----------------|
D |-------------------------------------|

D |--2-----2--------2-(2)---------------|
A |----2-------2----4--5--4-2-2-2-----4-|
F#|------2-------2-----------3----2---3-| 
D |----------2----------------------2---|
A |--0--------------0--0--0-------------|
D |-----------------------------0-----0-|

D |------------------------------------|
A |--0------0--------0-------0---------|
F#|----2--------2--------0-------0---0-| (2)
D |------2--------2--------2-------2---|
A |-----------0----------------0-------|
D |--0-----------------0---------------|

D |------------------------------------|  
A |--------0---------0-(0)-----------0-|   
F#|--8-----8---3--3--3-(3)--10--10--10-|  (On last chorus end 
D |----7-------2--2--2-------9---9-----|   here; move to outro)
A |------9-----4--4---------11--11-----|  
D |--9-----9---4--4--4------11--11-----|  

D |------------------------------------|
A |--0------0--------0-------0---------|
F#|----2--------2--------0-------0---0-| (2)
D |------2--------2--------2-------2---|
A |-----------0----------------0-------|
D |--0-----------------0---------------|


3rd VERSE:

D |------------------------------------|
A |--2------2--------4-------4---------|
F#|----2--------2--------3-------3---3-| (2)
D |------2--------2--------2-------2---|
A |--0--------0--------0--------0------|
D |------------------------------------|
	Fantasy

D |------------------------------------|
A |--2------2--------4-------4---------|
F#|----2--------2--------3-------3---3-| (2)
D |------2--------2--------2-------2---|
A |------------------------------------|
D |--4--------4--------4--------4------|
	Sailing

D |------------------------------------|
A |--2------2--------4-------4---------|
F#|----2--------2--------3-------3---3-| (2)
D |------2--------2--------2-------2---|
A |-----------0----------------0-------|
D |--0-----------------0---------------|
	All caught up

D |------------------------------------|
A |--2------2--------4-------4---------|
F#|----2--------2--------3-------3---3-| (2)
D |------2--------2--------2-------2---|
A |-----------0----------------0-------|
D |--2-----------------2---------------|
	     T			                T
	
     Wont you

REPEAT CHORUS

SOLO:

D |--------------------------------------|
A |--------7-7-7----7--=----------3------|
F#|------7-7-7---7----7---------3---3----|
D |----9----------9-----7-----3-------3--|
A |--------------------------------------|
D |--7-------9-9----9-------3------------|

D |--------------------------------------------5-|
A |-------5-----------1------------3---------5-5-|
F#|-----5---5-------1---1--------3---3-------5-5-|
D |---5-------5---1-------1----3-------3---5---5-|
A |--------------------------------------------5-|
D |-5-----------1------------3------------5--5-5-|

D |----------------------------------------------|
A |----------10-10-10-----10--=----------6-------|
F#|-------10-10-10---10-----10---------6---6-----|
D |----12--------------12-----12-----6-------6---|
A |----------------------------------------------|
D |-10----------10-10-----10-------6-------------|

D |--------------------------------------------7-|
A |-------8-----------3------------5---------7-7-|
F#|-----8---8-------3---3--------5---5-------7-7-|
D |---8-------8---3-------3----5-------5---7---7-|
A |--------------------------------------------7-|
D |-8-----------3------------5------------7--7-7-|

4th VERSE, CHORUS

D |---0---|
A |---0---|
F#|---0---| (play on last chorus before outro)
D |---0---|
A |---0---|
D |---0---|

OUTRO:

D |------------------------------------|      ---0---
A |--0------0--------0-------0---------|      ---0---
F#|----2--------2--------0-------0---0-| (5x) ---0---
D |------2--------2--------2-------2---|      ---0---
A |-----------0----------------0-------|      ---0---
D |--0-----------------0---------------|      ---0---
Tap to rate this tab
# A B C D E F G H I J K L M N O P Q R S T U V W X Y Z