Song name
# A B C D E F G H I J K L M N O P Q R S T U V W X Y Z

Chromeo - Come Alive chords

Highlighted       Show chord diagrams
-------------------------------------------------------------------------------
                             COME ALIVE - Chromeo
-------------------------------------------------------------------------------
Tabbed by: Chris O'Connor

Tuning: standard


Rhythm (Throughout) - 
 --1---+---2--- +---3----+---4---+---| 1----+---2---+---3----+----4----+----||

||-----x---x----x---x------------x---| x--------x---x------------(x)--------||
||-----x---x----x---x------------x---| x--------x---x------------(x)--------||
||-----x---x----x---x------------x---| x--------x---x------------(x)--------||
||-----x---x----x---x------------x---| x--------x---x------------(x)--------||
||-----x---x----x---x------------x---| x--------x---x------------(x)--------||
||-----x---x----x---x------------x---| x--------x---x------------(x)--------||

Chords (Throughout) -

|| Cm  |  Gm  |  Fm  |  Gm  ||  Gm  |  Ab  |  Bb  |  Cm  ||


A way of voicing the chords -

        Cm             Gm               Fm              Gm


e-----3---3----3---3------------1---| 1--------3---3------------(x)--------||
B-----4---4----3---3------------1---| 1--------3---3------------(x)--------||
G-----5---5----3---3------------1---| 1--------3---3------------(x)--------||
D-----5---5----5---5------------3---| 3--------5---5------------(x)--------||
A-----3---3----5---5------------3---| 3--------5---5------------(x)--------||
E -------------3---3------------1---| 1--------3---3------------(x)--------||


        Gm         Ab               Bb           Cm

e-----3---3----4---4------------6---| 6--------8---8------------(x)--------||
B-----3---3----4---4------------6---| 6--------8---8------------(x)--------||
G-----3---3----5---5------------7---| 7--------8---8------------(x)--------||
D-----5---5----6---6------------8---| 8--------10-10------------(x)--------||
A-----5---5----6---6------------8---| 8--------10-10------------(x)--------||
E-----3---3----4---4------------6---| 6--------8---8------------(x)--------||


Tap to rate this tab
 
# A B C D E F G H I J K L M N O P Q R S T U V W X Y Z