Song name
# A B C D E F G H I J K L M N O P Q R S T U V W X Y Z

Cinema Paradiso - Love Theme tab

CINEMA PARADISO - Love theme - Ennio Morricone
for any comments... m_abelayras@hotmail.com

main riff

e|---------------------------------------------------------
B|---------------------------------------------------------
G|---------------------------------------------------------
D|---8-0---8-7-5-7-10------------------7-8/10-8-7-8-12-----
A|-------6------------8-6-6-5------5-8---------------------
E|---------------------------------------------------------


e|---------------------------------------------------------
B|---------------------------------------------------------
G|---------------------------------------------------------
D|---12---------15-13--------17-15-15-13-12-10-8-----------
A|------10-9-10-----------15-------------------------------
E|---------------------------------------------------------


e|---------------------------------------------------------
B|---------------------------------------------------------
G|---------------------------------------------------------
D|---8-10-8-7----------7-8-7-------------------------------
A|------------8-10-----------------------------------------
E|---------------------------------------------------------
Tap to rate this tab
 
# A B C D E F G H I J K L M N O P Q R S T U V W X Y Z