Song name
# A B C D E F G H I J K L M N O P Q R S T U V W X Y Z

Circa Survive - Devil Song tab

-------------------------------------------------------------------------------
			     DEVIL SONG - theredsunband
-------------------------------------------------------------------------------
Tabbed by: Rhys
Email: stylish.kid.in.the.riot@hotmail.com

My first tab, saw them live and it looked like this.

e|------555-77-22-----------------------------------------------------------|
B|------555-77-22-----------------------------------------------------------|
G|------666-88-33-----------------------------------------------------------|
D|------777-99-44-----------------------------------------------------------|
A|------777-99-44-----------------------------------------------------------|
E|------555-77-22-----------------------------------------------------------|

This is play all the way through the song, but palm muted on some parts and distorted on 
parts.
Tap to rate this tab
# A B C D E F G H I J K L M N O P Q R S T U V W X Y Z