Song name
# A B C D E F G H I J K L M N O P Q R S T U V W X Y Z

Circa Survive - Phantasmagoria tab

Hey folks - It's been a while but I'm continuing my quest to tab out this whole album. I
had pretty much convinced myself that this whole album was in D standard, but that
illusion was shattered when I heard how crisp the opening chord in this song and the 
open high e string in the opening riff to "My Only Friend" are.

This is a neat little tune that I wasn't too fond of upon album's release, but the drums
in the buildup just get me every time now. Cool song, for sure.

Song is in Standard tuning - EADGBE



Gtr 1 - Intro (Just two chords, let them sing)
|-0-------2--------------------------------|
|-0-------2--------------------------------|
|-0-------2--------------------------------|
|-2-------4--------------------------------|
|------------------------------------------|
|------------------------------------------|
"When I found out about the Lord..."

Gtr 2 - Intro (w/ slide)
|------------------------------------------|
|--10/12---------------14/--10/12----------|
|------------------------------------------|
|------------------------------------------|
|------------------------------------------|
|------------------------------------------|
"That there was something that had so much love for us..."

Gtr 1 - Buildup (Rock the E7, listen for rhythm)
|---------------------------------|
|---------------------------------|
|-7-7-7-7-7-7-7-7-7-7-7-7-7-7-7---|
|-6-6-6-6-6-6-6-6-6-6-6-6-6-6-6---|
|-7-7-7-7-7-7-7-7-7-7-7-7-7-7-7---|
|-0-0-0-0-0-0-0-0-0-0-0-0-0-0-0---|
"To death..."

Gtr 2 - Buildup
|-14-14-14--12-12-12---10---12-------------|
|--------------------------------12--------|
|------------------------------------------|
|------------------------------------------|
|------------------------------------------|
|------------------------------------------|

Verse
Buildup again

Gtr 1 - Chorus chords
Bm, D, F#maj, Bm, D, F#maj

Gtr 2 - Chorus
|------------------------------------------|
|------------------------------------------|
|----------7-----------------7-------------|
|-7h9-7h9---9--9---7h9-7h9----9------------|
|------------------------------------------|
|------------------------------------------|
continued (ending 1st time, then ending 2nd time)
|-------------------------|-12-----12-----|-12----12-14--|
|------------10-----10/14-|-----14-----14-|-----14-------|
|-9h11-9h11-----11--------|---------------|--------------|
|-------------------------|---------------|--------------|
|-------------------------|---------------|--------------|
|-------------------------|---------------|--------------|


Interlude - Gtr 1 (Acoustic fingerpicks these chords later in interlude)
|--3-------5-----7------------|
|--3-------5-----7------------|
|--4-------6-----7------------|
|--5-------7-----9------------|
|-----------------------------|
|-----------------------------|

Interlude - Gtr 2
|------------------------------------------|
|--10/12--14/10/7--/12---------------------|
|------------------------------------------|
|------------------------------------------|
|------------------------------------------|
|------------------------------------------|


"Doesn't have to be something I can see..."

Gtr 1 - Until buildup just play this
|-----------------------------------9-7----------|
|-----3-------5-------5-------7---------7--------|
|---4---4-------6---6-------7---7---------7------|
|-5-------5-------7-------9-------9---------9----|
|------------------------------------------------|
|------------------------------------------------|

Gtr 2
|--14----14-12-10----12------------------10-------------|
|----------------------------10h12-10h12----12----------|
|-------------------------------------------------------|
|-------------------------------------------------------|
|-------------------------------------------------------|
|-------------------------------------------------------|

"What is... real..." (Buildup 2)

Gtr hangs on: (Same rhythm as E7 before)
|--0--|
|--0--|
|--3--|
|--4--|
|--4--|
|--2--|

Gtr 2:
|--14~----17~--19~--21b22r21~----------|
|--------------------------------------|
|--------------------------------------|
|--------------------------------------|
|--------------------------------------|
|--------------------------------------|


Explosion:

Gtr 1:
Bm, D, F#maj, Bm, D, F#maj


Gtr 2: See "Chorus"

After two repetitions:

Gtr 1 switches to:
|--14141414--10/7-7-7-7-x2----------------------------------|
|-----------------------------------------------------------|
|------------------------------11--11--11---15-11--11-11----|
|------------------------------x----x---x----x--x--x--x-----|
|------------------------------9----9---9---13--9--9--9-----|
|-----------------------------------------------------------|


Gtr 2 - Into outro
|------------------------------------------|
|------------10----------------------------|
|-9h11-9h11-----11---11-9-7-9-6~-----------|
|------------------------------------------|
|------------------------------------------|
|------------------------------------------|


Outro - Gtr 1
See "Intro"





That's all! As always comment fixes, rate, and message me with questions! Thanks for using!
Tap to rate this tab
# A B C D E F G H I J K L M N O P Q R S T U V W X Y Z