Song name
# A B C D E F G H I J K L M N O P Q R S T U V W X Y Z

Citizen Cope - Pablo Picasso tab

Highlighted       Show chord diagrams
Pablo Picasso by Citizen Cope


Palm mute these chords and play at the versus and chorus:
Fm - F7sus4 - C7

The break plays these chords: 
A - D - Dm

You can play those chords semi open like this:
     A    D   Dm
e|---0----x---x----------------------|
B|---0----0---X----------------------|
G|---6----11--10---------------------|
D|---7----12--12---------------------|
A|---7----12--12---------------------|
E|---x----x---x----------------------|


     Fm   F7sus4   C7
e|---1-----1--------1-----|
B|---1-----1--------2-----|
G|---1-----3--------3-----|
D|---3-----1--------2-----|
A|---3-----3--------3-----|
E|---1-----1--------x-----|

-DaKota
Tap to rate this tab
# A B C D E F G H I J K L M N O P Q R S T U V W X Y Z