Citizen Cope - Holdin On tab

I used to obsess over these things but it's late and this song is just too good to be anal.

figure out the rhythm and your cool.

Verse (can also be played for entire song including chorus but i mix it up)
e--- X/0-------X/0------X/0-|
b---  5---------5-------5---|
g---  5---------5-------0---|
d--- 3---------5--------5---|
a--- 5---------3--------4---|
e--- X/5------X/0------X0/--|


Chorus
e--1----0----0------|
b--1----0----0------|
g--2----0----0------|
d--0----2----2------|
a--0----3----4------|
e--0----X----X------|


MC
Tap to rate this tab
 
# A B C D E F G H I J K L M N O P Q R S T U V W X Y Z