Song name
# A B C D E F G H I J K L M N O P Q R S T U V W X Y Z

City And Colour - Boiled Frogs tab

City and Colour
Boiled Frogs (alexisonfire cover)

Tabbed by Abe

Tuning: DADGBE

Verse
E |------------------------------------------------------------|
B |------------------------------------------------------------|
G |-----------------------------------------7-7-777------------|
D |-0-0-000---0-0-000---0-0-000---5-5-555---7-7-777---5-5-555--|
A |-9-9-999---9-9-999---9-9-999---5-5-555---0-0-000---5-5-555--|
D |-9-9-999---9-9-999---9-9-999---5-5-555---0-0-000---5-5-555--|


E |----------------------------------------------------------------------|
B |----------------------------------------------------------------------|
G |---------------------7-7-777------------------------------------------|
D |-0-0-000---0-0-000---7-7-777---5-5-555---4-4-444---2-2-222---7-7-777--|
A |-9-9-999---9-9-999---0-0-000---5-5-555---5-5-555---2-2-222---7-7-777--|
D |-9-9-999---9-9-999---0-0-000---5-5-555---4-4-444---2-2-222---7-7-777--|
(repeat, and before entering chorus strum A chord twice the duration)


Chorus
E |-----------------------------------------------------------------------|
B |-----------------------------------------------------------------------|
G |--4-4-444-444-444--4-4-444-444-444-------------------------------------|
D |--5-5-555-555-555--5-5-555-555-555---0-0-000-000-000--0-0-000-000-000--|
A |--5-5-555-555-555--5-5-555-555-555---9-9-999-999-999--9-9-999-999-999--|
D |--5-5-555-555-555--5-5-555-555-555---9-9-999-999-999--9-9-999-999-999--|
(repeat)


Little part to play whilst switching from chorus back to verse
E |--------------|
B |--------------|
G |--------------|
D |--7--5--------|
A |--------9--7--|
D |--------------|


Outro
E |------------------------------------------------|
B |------------------------------------------------|
G |--4-4-4-444---------------7-7-7-777--6-6-6-666--|
D |--4-4-4-444---7-7-7-777---0-0-0-000--0-0-0-000--|
A |--5-5-5-555---7-7-7-777---9-9-9-999--9-9-9-999--|
D |--5-5-5-555---7-7-7-777---9-9-9-999--9-9-9-999--|
Tap to rate this tab
# A B C D E F G H I J K L M N O P Q R S T U V W X Y Z