Song name
# A B C D E F G H I J K L M N O P Q R S T U V W X Y Z

City And Colour - Soon Enough tab

Email: holden_monaro12@hotmail.com

Song: Soon Enough (Constantines cover)
Band: City and Colour
Album: Covers, pt. 2

These are the basic chord shapes for the song, however Dallas does include his signature 
hammer-ons and decorations so listen to the song for more insight on this.

Capo 2nd (chords are relative to capo)
Tuning STANDARD (E A D G B E)


INTRO
|--3---------------3-----3-------------3----------|
|--3---------------3-----3-------------3----------|
|--0---------------0-----0-------------0----------|     x2
|--2---------------2-----0-------------0----------|
|--2---------------3-----2-------------0----------|
|--0---------------------3-------------2----------|


"years from now..."
|---3-----------3-----3------------3-----3------------3-----3-------|
|---3-----------3-----3------------3-----3------------3-----3-------|
|---0-----------0-----0------------0-----0------------0-----0-------|
|---2-----------2-----0------------0-----2------------2-----0-------|
|---2-----------3-----2------------0-----2------------3-----2-------|
|---0-----------------3------------2-----0------------------3-------|


"soon enough..."
|---3----3-----------3----3-----------3----------|
|---3----3-----------3----3-----------3----------|
|---0----0-----------0----0-----------0----------|
|---2----0-----------2----0-----------0----------|
|---3----2-----------3----2-----------0----------|
|--------3----------------3-----------2----------|


"through and through..."
|---3-----------3-----3-----------3---------|
|---3-----------3-----3-----------3---------|
|---0-----------0-----0-----------0---------|    x2
|---2-----------2-----0-----------0---------|
|---2-----------3-----2-----------0---------|
|---0-----------------3-----------2---------|


"as he walked..."
|---3-----------3-----3------------3-----3------------3------3---------|
|---3-----------3-----3------------3-----3------------3------3---------|
|---0-----------0-----0------------0-----0------------0------0---------|
|---2-----------2-----0------------0-----2------------2------0---------|
|---2-----------3-----2------------0-----2------------3------2---------|
|---0-----------------3------------2-----0-------------------3---------|


"soon enough..."
|---3----3--------------3------|
|---3----3--------------3------|
|---0----0--- x4 -------0------|
|---2----0--------------0------|
|---3----2--------------0------|
|--------3--------------2------|


OUTRO
|--3---------------3-----3-------------3-----------|
|--3---------------3-----3-------------3-----------|
|--0---------------0-----0-------------0-----------|     x2
|--2---------------2-----0-------------0-----------|
|--2---------------3-----2-------------0-----------|
|--0---------------------3-------------2-----------|

|---3-----|
|---3-----|
|---0-----|
|---2-----|
|---2-----|
|---0-----|
Tap to rate this tab
# A B C D E F G H I J K L M N O P Q R S T U V W X Y Z