Guitaretab - guitar tabs
Song name
# A B C D E F G H I J K L M N O P Q R S T U V W X Y Z

Clapton Eric - Tears In Heaven tab

Highlighted       Show chord diagrams
TC Tunes
C Note productions

Here are the chords to a great song without all the second guitar riffs.  The intro riff
worth learning however to make it sound right. Fir more advanced guitar you can also
the riff at the beginning of each verse rather than playing A C#m7 F#m7.  Best played on 
classical guitar.

Bm(e)  xx4430
F#m6   002222
C#m7   446454
E7sus  020200
Db/F   100121
F#sus4 242422

Intro
riff 1

         A          C#m7    F#m7  F#m6  D   AE7 A
--------------------4-4----2-2---2-2---2-2--0--0--0-|
---------2h3p2------4-4----2-2---2-2---3-3--2--0--2-|
-------2-------2--- 5-5----2-2---2-2---2-2--2--1--2-|
---------------------------2-2---2-2---0-0--2--0--2-|
------ 0------------------------------------0--2--0-|
-0h2----------------4-4----2-2---0-0-----------0----|

then
Riff 1a
-----------------------|
----------2------------|
-------2h4---4p2-------|
---2h4---------4p2-----|
0-------------------0--|
-----------------------|

Verse 1
 A	   C#m7	   F#m7 F#m6
Would you know my name,
D    A        	   E   A Bm(e)
If I saw you in heaven,
  A      C#m7       F#m7 F#m6
Would it be the same,
 D    A            E   A Bm(e)
If I saw you in heaven,

F#m	     Db/F
I must be strong,
A7         F#
and carry on,
F#7   F#sus4  Bm	        E7sus
Cause I       know I don't belong,
	   A
Here in heaven.

Riff 1 and 1a or
A C#m7 F#m7 F#m6 D A E7 A
[ Tab from: http://www.guitaretab.com/c/clapton-eric/22312.html ]
Verse 2
A          C#m7       F#m7 F#m6
Would you hold my hand
D      A	    E  A Bm(e)
If I saw you in heaven
A	   C#m7      F#m7  F#m6
Would you help me stand
D	A	   E   A Bm(e)
If I saw you in heaven

F#m7	      Db/F  A7             F#
I'll find my way, through night and day
F#7   F#sus4  Bm	        E7sus
Cause I       know I just can't stay
	   A
Here in heaven

Riff 1  and 1a or
A C#m7 F#m7 F#m6 D A E7 A

to Bridge
----------|
----------|
----------|
----------|
-0-2-3----|
----------|

Bridge

C        G/B	     Am
Time can bring you down
	  D         G   D/F#  Em D/F# G
Time can bend your knee
C	 G/B        Am
Time can break your heart
         D       G     D/F#
Have you begging please
	  E    A  Bm(e)
Begging please

Instrumnetal play verse

F#m7	    Db/F
Beyond the door
A7		   F#
There's peace I'm sure.
F#7 F#sus4  Bm                  E7sus
And I       know there'll be no more...
	   A
Tears in heaven

Riff 1  and 1a or
A C#m7 F#m7 F#m6 D A E7 A

Repeat verse 1 then

F#7   F#sus4   Bm                  E7sus
Cause I        Know there'll be no more
           A
tears in heaven

outtro

Riff 1 or
A C#m7 F#m7 F#m6 D A E7 A

end A
------------------------|
----------2-------------|
-------2h4---4p2--------|
---2h4---------4p2------|
0------------------4-0--|
------------------------|
Related for Tears In Heaven tab
Tears In Heaven chords by Clapton Eric