Guitaretab - guitar tabs
Song name
# A B C D E F G H I J K L M N O P Q R S T U V W X Y Z

Clapton Eric - Tears In Heaven tab

***fills are located at bottom of page***

------------------------------5/7\5------------------------------------------- 
------------2h3p2--5---5--2---5/7\5--5/7\5--2-5---3---3---3---3-2---2---2----- 
----------2--------4---4--2----------4/6\4--2-4---2---2---2---1-2---2---2----- 
------------------------------------------------------------------------------ 
-------2--------------------------------------------------------0-0-0-0-0----- 
--0h2--------------4-4-4--2-----------------------2-2-2-2-0-0-0--------------- 
INTRO 

------------------------------------------------------------------------------ 
----------2-2h3p2-5---5--2---2---2---2---3---3-3-2---2---0---0---2---3-------- 
------------------4---4--2---2---2---2---2---2-2-2---2---1---1---2---4-------- 
------------------------------------------------------------------------------ 
-------2---------------------------------------------------------------------- 
--0h2-------------4-4-4--2-2-2-2-0-0-0-0-2-2-2-2-0-0-0-0-0-0-0-0-0-0-0-------- 
VERSE 1     *1st time play fill 1, 2nd fill 2* between (v1 and v2)

-----------------------------5/7\5-------------------------------------------- 
----------2-2h3p2-5---5--2---5/7\5---5/7\5--2-5--3---3-3-2---2---0---0---2-4-- 
------------------4---4--2-----------4/6\4--2-4--2---2-2-2---2---1---1---2-3-- 
------------------------------------------------------------------------------ 
-------2---------------------------------------------------------------------- 
--0h2-------------4-4-4--2-----------------------2-2-2-2-0-0-0-0-0-0-0-0-0-0-- 
VERSE 2 

----------------------1---1---1--------0---0---0------------------------------ 
-----2---2---2--------2---2---2--------2---2---2--------2---5---2--------3---- 
-----2---2---2------1---1---1---1----0---0---0---0------3---3---3--------2---- 
---4---4---4---4--3----------------2------------------2---2---2---2----4---4-- 
---------------------------------------------------------------------2-------- 
-2--------------------------------------------------2------------------------- 
CHORUS 

------------------------------------------------------------------------------ 
-3---3-----3-3---3------------------------------------------------------------ 
-2---2-----2-2---2------------------------------------------------------------ 
---4---4---------------------------------------------------------------------- 
------------------------------------------------------------------------------ 
---------0-----0-------------------------------------------------------------- 
CHORUS (CON'T) repeat from top

------------------------------5/7\5------------------------------------------- 
-----------2h3p2--5---5--2---5/7\5--5/7\5--2-5---3---3---3---3-2---2---2----- 
---------2--------4---4--2----------4/6\4--2-4---2---2---2---1-2---2---2----- 
----------------------------------------------------------------------------- 
-------2--------------------------------------------------------0-0-0-0-0----- 
--0h2--------------4-4-4--2-----------------------2-2-2-2-0-0-0---------------

-----0-0-------------------------------------| 
-----1-1--3---3--1---1----3---3-0---0---3---3| 
---0------0---0--2---2----2---2-0---0---2---2| 
------------0------2---2----------0---0------| repeat bridge
-3--------2---2--0---0-----------------------| 
--------------------------2-2-2-3---3---2-2-2| 
BRIDGE                                          

-----------12-12/14---------10-12--------------------------------------------- 
-12b14r10-----------12b14r--------12b14r-10-12vvvv---------------------------- 
------------------------------------------------------------------------------ 
------------------------------------------------------------------------------ 
------------------------------------------------------------------------------ 
------------------------------------------------------------------------------ 
SOLO 

-----------12-12/14-----------10-12------------------------------------------- 
-12b14r10-----------12/14vvvv-------12/14-10-10/12---------------------------- 
------------------------------------------------------------------------------ 
------------------------------------------------------------------------------ 
------------------------------------------------------------------------------ 
------------------------------------------------------------------------------ 
SOLO (CON'T) 

----------------------1---1---1--------0---0---0------------------------------ 
-----2---2---2--------2---2---2--------2---2---2--------2---5---2--------3---- 
-----2---2---2------1---1---1---1----0---0---0---0------3---3---3--------2---- 
---4---4---4---4--3----------------2------------------2---2---2---2----4---4-- 
---------------------------------------------------------------------2-------- 
-2--------------------------------------------------2------------------------- 
CHORUS 

------------------------------------------------------------------------------ 
-3---3-----3-3---3------------------------------------------------------------ 
-2---2-----2-2---2------------------------------------------------------------ 
---4---4---------------------------------------------------------------------- 
------------------------------------------------------------------------------ 
---------0-----0--------------------------------------------------------------
continued chorus

------------------------------------------------------------------------------ 
----------2-2h3p2-5---5--2---2---2---2---3---3-3-2---2---0---0---2---3-------- 
------------------4---4--2---2---2---2---2---2-2-2---2---1---1---2---4-------- 
------------------------------------------------------------------------------ 
-------2---------------------------------------------------------------------- 
--0h2-------------4-4-4--2-2-2-2-0-0-0-0-2-2-2-2-0-0-0-0-0-0-0-0-0-0-0-------- 
VERSE 1     1st time play fill 1, 2nd fill 2! Between v1 and 2)

-----------------------------5/7\5-------------------------------------------- 
----------2-2h3p2-5---5--2---5/7\5---5/7\5--2-5--3---3-3-2---2---0---0---2-4-- 
------------------4---4--2-----------4/6\4--2-4--2---2-2-2---2---1---1---2-3--r
------------------------------------------------------------------------------ 
-------2---------------------------------------------------------------------- 
--0h2-------------4-4-4--2-----------------------2-2-2-2-0-0-0-0-0-0-0-0-0-0-- 
VERSE repeat from last time u played the chorus
-----------------------0
--------3h2p3------0h3---
------3------3-4p2-------
----3--------------------
--0----------------------
-------------------------
endů FINALLY!
***********************************************************************
fill 1                          fill 2
e--/7--5------------------------|--------------------------|
b----------7--5------5----3~~---|--7--9--9h10~--9--7--9--3-|
g-----------------6-------2~~---|------------------------2-|
d-------------------------------|--------------------------|
a-------------------------------|--------------------------|
e-------------------------------|--------------------------|
[ Tab from: http://www.guitaretab.com/c/clapton-eric/22925.html ]
Related for Tears In Heaven tab