Song name
# A B C D E F G H I J K L M N O P Q R S T U V W X Y Z

Clapton Eric - Signe tab

h=hammer on

p=pull off

/=slide



Intro:
|-------------0-----1-------||    |----0-----0-----1--------|
|----2-----0-----2--------0-||    |-2-----0-----2--------0--|
|----2-----1-----2--------1-||    |-2-----1-----2--------1--|
|---------------------------||    |-------------------------|x3
|-0-----0--------0----------||    |-0-----0-----0-----------|
|----------------------0----||    |-------------------0-----|


|----0-----0----------------|
|-2-----0-----2----------0--|
|-2-----1-----2-----1h2-----|
|----------------2----------|
|-0-----0-----0-------------|
|---------------------------|
End intro
_________________________________________________________________________________________

The rest of the song is divided in to riffs. The order comes later.

Riff 1
|----0--------0--0--4-------------2--------------0----------------|
|-2--------4-----0-------------3--------3--2--0-------------------|
|-2--------2--------------4/6--2--------2--2--1--------4p2p1------|
|------------------------------0-----0----------------------------|
|-0-----0---------------------------------------------------------|
|----------------0-----0----------------------------0-------------|


|----0------------------2-------------2--------------0------------|
|-2--------2p0-----2h3-------------3--------3--2--0---------------|
|-2-------------2-------------2h4--2--------2--2--1--------4p2p1--|
|----------------------------------0-----0------------------------|
|-0-----0----------0-------0--------------------------------------|
|-------------------------------------------------------0---------|



Riff 2 (this is a kind of chourse but I call it just riff 2)
|----0--------0-----0--------0-----0--------0-----0------------|
|-2--------2-----3--------3-----3--------3-----3---------------|
|-2--------2-----2--------2-----2--------2-----2--------4p2p1--|
|--------------------------------------------------------------|
|-0-----0--------0-----0---------------------------------------|
|-------------------------------2-----2--------0-----0---------|



Riff 3
------------|---------------0--------0-----2--------------0-------------|
---------0--|-4h5--5--5--2--------2-----3--------3--2--0-------------0--|
----1h2-----|-4----4--4--2--------2-----2--------2--2--1--------1h2-----|
------------|---------------------------0-----0-------------------------|
------------|-4----4--4--0-----0----------------------------------------|
-0----------|------------------------------------------------0----------|


|---------------------0-----2--------------0-------------|
|-4h5--5--5--2-----2-----3--------3--2--0-------------0--|
|-4----4--4--2-----2-----2--------2--2--1--------1h2-----|
|-6----6--6--------------0-----0-------------------------|
|------------0--0----------------------------------------|
|---------------------------------------------0----------|


|-4--4--4-----0--------0-----2--------------0------------|
|-5--5--5--2--------2-----3--------3--2--0---------------|
|-4--4--4--2--------2-----2--------2--2--1--------4p2p1--|
|-6--6--6-----------------0-----0------------------------|
|----------0---------------------------------------------|
|----------------0-----------------------------0---------|



Riff 4
|----0-----0-----4-------0-----2--------------0----------------|
|-2-----4-----5-----0h2-----3--------3--2--0--------3p2h3p2p0--|
|-2-----5-----4-----2-------2--------2--2--1-------------------|
|---------------------------0-----0----------------------------|
|-0-----0-----4-----0------------------------------------------|
|------------------------------------------------0-------------|


|----0------------------2-------------2--------------0------------|
|-2--------2p0-----2h3-------------3--------3--2--0---------------|
|-2-------------2-------------2h4--2--------2--2--1--------4p2p1--|
|----------------------------------0-----0------------------------|
|-0-----0----------0-------0--------------------------------------|
|-------------------------------------------------------0---------|



Ending
|--5--|
|--5--|
|--6--|
|--7--|
|--7--|
|--5--|

_________________________________________________________________________________________

And now the order:


Intro

Riff 1

Riff 2   x2

Riff 1

Riff 2   x2

Riff 3

Riff 2   x2

Riff 4

Riff 2   x2

Ending




There it is! Hope you have enjoy it and have much fun.
And if you did it better, pleace send me a message to andreas.jacobson@mhskol.aland.fi

Andreas from The ?land Islands (Finland)

See ya...



Tap to rate this tab
# A B C D E F G H I J K L M N O P Q R S T U V W X Y Z