Song name
# A B C D E F G H I J K L M N O P Q R S T U V W X Y Z

Clapton Eric - Born Under A Bad Sign tab

for starters id like to thank indie nation for posting the original tab for this song.i saw
it and used it to get a basic understanding of the song.for the most part he did an 
excellent job.all i have done is filled in a lot of spots in the verses that he left blank,
along with editing some of the stuff he already had written.so while i did make a lot of my
own changes to this tab,a lot of credit still goes to indie nation.

also,this is my first time writing tablature on a computer.

Artist: Cream
Song: Born Under A Bad Sign
Written By: Albert King
Tunning: Standard
Tabbed By: INDIE NATION & rockerdaltrey

Tab Ledgend:

b = bend
p = pull off
h = hammer on
\ = slide
~ = vibrato


Intro:

Bass and Guitar riff:
e-------------------------------|
b-------------------------------|
g---------3b4-------------------|
d-----3-5------5-------3--------|
a-3-5--------------3-5---1b2----|
E-----------------------------3-|

e------------------------------------------------|
b-13b15~~-------------13b15~~---11-13-11b12------|
g-------------12~~~--------------------------12~-|
d------------------------------------------------|
a------------------------------------------------|
E------------------------------------------------|

e------3-------------|
b--------6p3---------|
g-5b7--------5--3b4--|
d--------------------|
a--------------------|
E--------------------|

Chorus: (follow intro pattern)
G
Born under a bad sign
I've been down since I began to crawl
|-----3-----8b9--|
|-------6b8------|
|-5b7------------|
|----------------|
|----------------|
|----------------|

e-------------------------------------|
b----------6--6---6--6----------------|
g----------5--5---5--5---------------3|
d----------4--4---4--4---3b4---------2|
a-2-3-4-5--5--5---5--5--------5-4-3--3|
E-------------------------------------|


D
If it wasn't for bad luck
I wouldn't have no luck at all

e----------3-----------------------|
b------------6p3-------------------|
g-5b7b5b7-------3b4-----------3b4--|
d--------------------3-5p3-5p3---5-|
a-------------------5--------------|
E----------------------------------|


Verse 1:
Bad luck and trouble's my only friend
I've been down ever since I was ten

Chorus
|-------------------------------------3----------------------------3------------|
|--------13--------------------------3--6b8-6~-----------------------------6b8--|
|--15b16---15b16-15b16-12~~-------5b7--------------5p3----------5b7----3h5------|
|------------------------------------------------------5p3--3h5-----------------|
|---------------------------------------------------------5---------------------|
|-------------------------------------------------------------------------------|

Verse 2:
No whinin' women is all I crave
A big bad woman's gonna carry me to my grave

Chorus
|--12b13------------------------------------------------------------|
|--------13-11---13p11b12--------3-6-3-----------6h8----------------|
|-----------------------------5b7------5-5b7---------5-5p3-5-3------|
|-------------------------------------------------------------------|
|-------------------------------------------------------------5-5~--|
|-------------------------------------------------------------------|

Solo:

e-----------15---------------------15-------------------------|
b--------15-----18b20~~-------15-15---18p15-------------------|
g-17(19)----------------17b19--------------17b18-15~-17p15----|
d---------------------------------------------------------17~~|
a-------------------------------------------------------------|
E-------------------------------------------------------------|

e-------15----------18b20-18-15----15------------------------------|
b----------18b20----------------18----18b20---18-15----------------|
g-17b19---------------------------------------------17-15b16-------|
d-----------------------------------------------------------17-17~-|
a------------------------------------------------------------------|
E------------------------------------------------------------------|

e-----------15------------------------15-----15-------|
b--------15----18p15-18-18b20----18b20--18b20--18b20~~|
g-17(19)----------------------------------------------|
d-----------------------------------------------------|
a-----------------------------------------------------|
E-----------------------------------------------------|

e-18p15-22b24-22b24-15-18b19--15----------18p15-18b19-15\-|
b-------------------------------18-18b20~-----------------|
g---------------------------------------------------------|
d---------------------------------------------------------|
a---------------------------------------------------------|
E---------------------------------------------------------|

e------15-------------------------------|
b---------18p15-------------------------|
g-17b19---------17b19-15-17p15-15b16----|
d-----------------------------------17\-|
a---------------------------------------|
E---------------------------------------|

e-------------------------------------13-13----------------|
b--------------------------16b18-16b18------16b18-11b12----|
g-----12-----12-12-12-12-------------------------------12~-|
d-/14----14------------------------------------------------|
a----------------------------------------------------------|
E----------------------------------------------------------|

e-------------------------3-------------|
b----6p3--6p3---------------6p3---------|
g-5b7--------5p3-4b5---5b7------5-3b4---|
d------------------------------------5~-|
a---------------------------------------|
E---------------------------------------|

Verse 1:
Bad luck and trouble's my only friend
I've been down ever since I was ten

e----------------|
b----------------|
g---12-15b17-12~-|
d-12-------------|
a----------------|
E----------------|


Chorus
e-----------------------------------------------------15------------------------15-|
b-11-13-11-13b15---11b12----13b14-13b14-----------------18p15----------------------|
g---------------12~--------------------12h15~----17b19-------17b19-15b16---17b19---|
d-----------------------------------------------------------------------17~--------|
a----------------------------------------------------------------------------------|
E----------------------------------------------------------------------------------|

Born under a bad sign
Born under a bad sign

e------15------------18b20-18-15--15-------------------------------|
b-18b20--18b20~----15-----------18--18b20~--------18p15------------|
g--------------------------------------------17b19-----17-15b16----|
d--------------------------------------------------------------17~-|
a------------------------------------------------------------------|
E------------------------------------------------------------------|
Tap to rate this tab
# A B C D E F G H I J K L M N O P Q R S T U V W X Y Z