Song name
# A B C D E F G H I J K L M N O P Q R S T U V W X Y Z

Clark Dave Five - Anyway You Want It tab

----------------------------------------------------------|
                      any way you want it - rise against -|
this is my first tab, despite the fact that i've tried to sumbit it about three times 
i'd love to know why it hasn't made it through yet, and am asking nicely for an email or 
to explain why i've had to do this so many times.

Tabbed by:-daveb-
Email:roadrash92@cs.com

Tuning:Eb


intro
e|------------------------|
B|------------------------|
G|------------------------|
D|-----------------020----|
A|5-55-52--323232-3---320-|
E|3-32-20--------3-------3|

riff 1     riff 2
after      before
the E5     chorus
e|--------|--------|
B|--------|--------|
G|--------|--------|
D|--------|-020----|
A|323232--|3---320-|
E|------33|-------3|

chorus
e|----------------------------------------|
B|----------------------------------5-----|
G|-------------------------545454-57-754--|
D|-------------------------------5------75|
A|5-5555555-5555552-222222----------------|
E|3-3333332-2222220-000000----------------|

solo
e|----------------------------------------------------------|
B|----------------------------------------------------------|
G|14^14^14^14~12-14^-14p12h14p12-12h14p12-------------------|
D|---------------------------------------14p12--------------|
A|--------------------------------------------14p12---------|
E|-------------------------------------------------15p12\10~|

e|---------------------------------------------------------|
B|---------------------------------------------------------|
G|-----12h14-14^-14-12-14~12-----------12h14p1214^14h12----|
D|12h14---------------------14-12~14-12----------------12~~|
A|---------------------------------------------------------|
E|---------------------------------------------------------|
then lead goes back to chorus riff.

end solo
e|-------------------|
B|5-32----232--232---|
G|----4-24---24---242|
D|-------------------|
A|-------------------|
E|-------------------|

| ^  bend up/down
| /  slide up
| \  slide down
| h  hammer-on
| p  pull-off
| ~  vibrato
| +  harmonic
| x  Mute note
===============================================================================
Tap to rate this tab
# A B C D E F G H I J K L M N O P Q R S T U V W X Y Z