Song name
# A B C D E F G H I J K L M N O P Q R S T U V W X Y Z

Claude Kelly - I Hate Love tab

Claude Kelly  I Hate Love
By: Kelvin Lieu
Standard tuning required.
Chords: Em, C, G, D
Though this is only the intro (the first 4 by 4). I made this because of the requests 
which haven't been very close. This is only my first tab and chord, so don't be too harsh. 
wrong, just tell me, and I'll be happy to change it. :)
Email: da_unknown_azn@hotmail.com     add me & comment :)


             Em                               C                       G

e|----------------------------|---------------------------|--------------------------|
B|--------------5/6-----3-----|----------------------1----|---------1-----------3----|
G|--0----3--------------------|---0-----3------0----------|---3------------3---------|
D|----------------------------|---------------------------|--------------------------|
A|----------------------------|---------------------------|--------------------------|
E|----------------------------|---------------------------|--------------------------|


              D

e|----------------------------|
B|----------------------------|
G|--------7/8------6-----4----|
D|--0-------------------------|
A|----------------------------|
E|----------------------------|
Tap to rate this tab
 
# A B C D E F G H I J K L M N O P Q R S T U V W X Y Z