Song name
# A B C D E F G H I J K L M N O P Q R S T U V W X Y Z

Claus Hempler - Lost In Space chords

Highlighted       Show chord diagrams
-------------------------------------------------------------------------------
			     LOST IN SPACE - Claus Hempler
-------------------------------------------------------------------------------
Tabbed by: budtz38
Email: budtz38@hotmail.com

Tuning: EADGBE

VERSE
  Dm      Gm7     C11(9)    Fmaj    Bbmaj   Gm/F(E)     A7      Ebo7 
e|5--------1--------1(0)-----0--------1--------3--------0--------7|
B|6--------3--------3--------1--------3--------3--------2--------6|
G|7--------3--------3--------2--------2--------3--------0--------7|
D|7--------0--------x--------3--------3--------3(2)-----2--------6|
A|5--------x--------3--------3--------1-----------------0---------|
E|---------3-----------------1------------------------------------|

CHORUS
 Gm9       F6      Eb6       D7     Gm/D     A7/C#    Gm7(6)    A/F       Dm
e|5--------5--------3--------2--------1--------0--------1(0)-----0--------1|
B|3--------3--------1--------1--------3--------2--------3--------2--------3|
G|3--------5--------3--------2--------3--------0--------3--------2--------2|
D|5--------3--------1--------0--------0--------2--------0--------2--------0|
A|---------------------------------------------4--------x--------x---------|
E|------------------------------------------------------3--------1---------|

AFTER 1st CHORUS
  C7      Fmaj      A7  
e|0--------0--------0|
B|1--------1--------2|
G|3--------2--------0|
D|2--------3--------2|
A|3--------3--------0|
E|---------1---------|

INTERMEZZO
Gm9(7)    Gb+     Em9(7)    Eb+     C#m9(7)    C+    Bbm9(7)     Dm     
e|5(0)-----2--------2(0)--------------11(9)----8--------8(6)-----5|
B|3--------3--------0--------4--------9--------9--------6--------6|
G|3--------3--------0--------4--------9--------9--------6--------7|
D|5--------4--------2--------5--------11-------10-------8--------7|
A|---------------------------6-----------------------------------5|
E|----------------------------------------------------------------|
Tap to rate this tab
# A B C D E F G H I J K L M N O P Q R S T U V W X Y Z