Song name
# A B C D E F G H I J K L M N O P Q R S T U V W X Y Z

Clemency - Come Around tab

Sing It Loud-Come Around
Tabbed by: XfalconX
http://profile.ultimate-guitar.com/XfalconX/

Sing It Loud's Site: http://www.epitaph.com/artists/artist/253/Sing_It_Loud

I noticed that there are no tabs for Sing It Loud, so I decided to post one.

Pretty simple song, no slides or bends or anything. For some of the repetitive power 
I just put the chord once hoping you all would be smart enough to figure it out :). The 
can be found here: http://search.playlist.com/tracks/sing%20it%20loud

By the way, this is my first tab posted so I hope you like it!


E|------------------------------------------------------------------------------------|
B|------------------------------------------------------------------------------------|
G|--7-----4--------------7-----4--------------------------11----------11--11----------|
D|--7--5--4--7--5--------7--5--4--7--5--------12--12--14------12--14----------14--12--|
A|--5--5--2--7--5--------5--5--2--7--5------------------------------------------------|
E|-----3-----5--3-----------3-----5--3------------------------------------------------|

E|----------------------------------------------------------------------------------|
B|----------------------------------------------------------------------------------|
G|----------11----------11--11------------------11----------11--11------12--11------|
D|--12--14------12--14----------14--12--12--14------12--14----------14----------12--|
A|----------------------------------------------------------------------------------|
E|----------------------------------------------------------------------------------|

E|-------------------------------------------------------------------|
B|-------------------------------------------------------------------|
G|-------------------------4-----------------4-----------------------|
D|----------7--5--7--5--7--4--5--7--4--5--7--4--5--7--5--7--7--------|
A|--14--10--7--5--7--5--7--2--5--7--4--5--7--2--5--7--5--7--7--------|
E|----------5--3--5--3--5-----3--5--2--3--5-----3--5--3--5--5--------|

E|------------------------------|
B|------------------------------|
G|--7-----4---------7-----------|
D|--7--5--4--5------7--5--7--5--|
A|--5--5--2--5------5--5--7--5--|
E|-----3-----3---------3--5--3--|
                                       4x
E|--------------------------------------|------------------------------------|
B|--------------------------------------|------------------------------------|
G|--------------------------------------|--7-----4------------7--------------|
D|--5--7--9--7--9--9--7--9--7--9--7--5--|--7--5--4--7--5------7--5--7--5--7--|
A|--5--7--9--7--9--9--7--9--7--9--7--5--|--5--5--2--7--5------5--5--7--5--7--|
E|--3--5--7--5--7--7--5--7--5--7--5--3--|-----3-----5--3---------3--5--3--5--|
               4x
E|--------------|-----------|
B|--------------|-----------|
G|--4-----7-----|--4--------|
D|--4--5--7--7--|--4--7--5--|
A|--2--5--5--7--|--2--7--5--|
E|-----3-----5--|-----5--3--|
Tap to rate this tab
# A B C D E F G H I J K L M N O P Q R S T U V W X Y Z