Guitaretab - guitar tabs
Song name
# A B C D E F G H I J K L M N O P Q R S T U V W X Y Z
Home / C / Clinic / Family tab

Clinic - Family tab

-------------------------------------------------------------------------------
			     Family - Clinic
-------------------------------------------------------------------------------
Tabbed by: Gallagher2006

Tuning: Standard

Got tired of waiting for a tab to come through, so I just tabbed it myself

Intro - Rhythm guitar plays this chord all the way 
through the intro and verses

e|-------------------------------------|
B|-------------------------------------|
G|-------------------------------------|
D|--10-1010-10-10-10-10-10-10----------|
A|--10-1010-10-10-10-10-10-10----------|
E|--8--8-8--8--8--8--8--8--8-----------|

Intro solo

e|---------------------------------------------------------------|
B|-------------------------------------------------------3-4-----|
G|-5---------/7-8--9~------3/5--5-5---5-3-3-3/5--5-5--5------3/5-|
D|---------------------------------------------------------------|
A|---------------------------------------------------------------|
E|---------------------------------------------------------------|

Verse

e|---------------------------------3-----------------------------------------|
B|-----------------5--5-5-5-5-5-5----5-5-5-5-5--5-4-3------------------------|
G|---5---3/-5-----------------------------------------5--3/5-----------------|
D|---------------------------------------------------------------------------|
A|---------------------------------------------------------------------------|
E|---------------------------------------------------------------------------|

Chorus - Rhythm guitar
[ Tab from: http://www.guitaretab.com/c/clinic/171189.html ]
e|---------------------------------------------------------------------------|
B|---------------------------------------------------------------------------|
G|---------------------------------------------------------------------------|
D|---13-13-13-13-13-13-13-13/-17-17-17-17-17-17-17/-9-9-9-9-9-9-9-9-9-etc----|
A|---13-13-13-13-13-13-13-13/-17-17-17-17-17-17-17/-9-9-9-9-9-9-9-9-9--------|
E|---11-11-11-11-11-11-11-11/-15-15-15-15-15-15-15/-7-7-7-7-7-7-7-7-7--------|

Chorus lead guitar

e|---------------------------------------------------------------------------|
B|----4--4--4--4--4--4--4--4/--8-8-8-8-8-8-8-8-8-/--12-12-12-12-12-12-10-etc-|
G|---------------------------------------------------------------------------|
D|---------------------------------------------------------------------------|
A|---------------------------------------------------------------------------|
E|---------------------------------------------------------------------------|

Then the song repeats. 

Guitar solo - 

e|---8--10-11-12~-12-11-10-x4---8-11--8--------------------------------------|
B|--------------------------------------11-8-11~--4-4-4-3-3-3-3-5------------|
G|----------------------------------------------------------------5-3---3-5~-|
D|--------------------------------------------------------------------5------|
A|---------------------------------------------------------------------------|
E|---------------------------------------------------------------------------|

Then itís a verse and chorus, then to the outro which is just a variation on
The intro riff until this part

e|---------------------------------------------------------------------------|
B|-------------------------------------13-11-13-11-13-11-13-11-13-11----11-13|
G|-5-3-5-3-5-3-5-3-5-3-5-3-5-3-5-3-5/--------------------------------12------|
D|---------------------------------------------------------------------------|
A|---------------------------------------------------------------------------|
E|---------------------------------------------------------------------------|

End of song. Pretty simple, eh?
Related for Family tab