Song name
# A B C D E F G H I J K L M N O P Q R S T U V W X Y Z

Coal Chamber - Sway tab

Coal Chamber - Sway 

By: KoRnAtEmYmOm (J.J. Nyari)

This is the song sway by Coal Chamber. This song should be 
Correct but since I'm sitting here in school I dont have my 
guitar so it might be wrong

Intro:

D|-----------|
A|--0-0-0-0--|
F|-3-3-3-3---|
C|-----------|
G|-----------|
C|-----------|

Riff1:

D|--------------------------|
A|--------------------------|
F|--------------------------|
C|-3-0-3-0-34---3-0-3-0-34--|
G|-3-0-3-0-34---3-0-3-0-34--|
C|-3-0-3-0-34---3-0-3-0-34--|

Riff2:

D|--------------|
A|--------------|
F|--------------|
C|-3-4-3--3--3--|
G|-3-4-3--3--3--|
C|-3-4-3--3--3--|
   * * *  *  *
(Palm Mute)

Well I hope you enjoy 
the intro is probably 
wrong but I'll fix it
when i go home to my 
Guitar.
Tap to rate this tab
# A B C D E F G H I J K L M N O P Q R S T U V W X Y Z