Song name
# A B C D E F G H I J K L M N O P Q R S T U V W X Y Z

Coaltar Of The Deepers - Snow tab

-------------------------------------------------------------------------------
			     snow - coaltar of the deepers
-------------------------------------------------------------------------------
Tabbed by: strn
Email: satriani.89@hotmail.com

Sadly, I only figured out the beginning I'll update when I figure out the rest
so here it goes:

it begins with only the guitar, that goes like this:

E||-------------------------|------------------------|
B||--4----4----4--4--4--4---|--6----6--6--6----6--6--|
G||--3----3----3--3--3--3s--|--5----5--5--5----5--5--|
D||-------------------------|------------------------|
A||--3----3----3--3--3--3s--|--5----5--5--5----5--5--|
E||-------------------------|------------------------|
 
---------------------------|------------------------|-------------------------|
--5s-6--6--6--6----6----5s-|--6----6--6--6----6s----|--4----4----4--4--4--4---|
--4s-5--5--5--5----5----4s-|--5----5--5--5----5s----|--3----3----3--3--3--3s--|
---------------------------|------------------------|-------------------------|
--4s-5--5--5--5----5----4s-|--5----5--5--5----5s----|--3----3----3--3--3--3s--|
---------------------------|------------------------|-------------------------|

------------------------|---------------------------|------------------------|
--6----6--6--6----6--6--|--5s-6--6--6--6----6----5s-|--6----6--6--6----6--6--|
--5----5--5--5----5--5--|--4s-5--5--5--5----5----4s-|--5----5--5--5----5--5--|
------------------------|---------------------------|------------------------|
--5----5--5--5----5--5--|--4s-5--5--5--5----5----4s-|--5----5--5--5----5--5--|
------------------------|---------------------------|------------------------|

after that bass, drums and guitar enters

the guitar goes something like this:
 
E||-------------------------|------------------------|----------------------------|
B||-------------------------|------------------------|----------------------------|
G||-------------------------|--5----5--5--5----5--5--|--0g2--2--L--2--L--2--0-----|
D||------3----3----3--0--3--|------------------------|----------------------0--3--|
A||-------------------------|--5----5--5--5----5--5--|--0g1--1--L--1--L--1--0--3--|
E||------3----3----3--0--3--|------------------------|-------------------------3--|
 
-------------------------||
-------------------------||
-------------------------||
--2----2--2--2----0--2---||
------------------0------||
--1----1--1--1----0--1---||





while the bass goes like this:
 
G||----------------------||-------------------------|---------------------------|
D||----------------------||o------------------------|---------------------------|
A||----------------------||o------------------------|--3g5----5--5--5----5--5s--|
E||----------------0--1--||---2--3----3----3--1--3--|---------------------------|


--------------------------|-------------------------||
--------------------------|------------------------o||
--1--1--1--1--1--1--0-----|------------------------o||
-----------------------3--|--1----1--1--1----0--1---||

that's all for the moment
please post corrections if you find any mistakes or another way to play something
feel free to contact me through my email: satriani.89@hotmail.com
hope this tab can be helpful to someone

Tap to rate this tab
 
# A B C D E F G H I J K L M N O P Q R S T U V W X Y Z