Guitaretab - guitar tabs
Song name
# A B C D E F G H I J K L M N O P Q R S T U V W X Y Z

Cock Sparrer - England Belongs To Me tab

Transcribed by Johnny Skullfuck.

This is far more accurate than the existing tab of the solo.

Cocksparrer: England Belongs to Me Guitar Solo:

Chords / Bass underneath the tab…


|--------------------------------|-------------------------------|
|--------------------------------|-------------------------------|
|--------------------------------|-------------------------------|
|----99------88------66----------|-------------------------------|
|--------------------------99----|---77---66-------6-9-6---6-----|
|--------------------------------|-------------7-9-------9---7---|
     B       A#      G#    F#        E    D#   C#            B         
[ Tab from: http://www.guitaretab.com/c/cock-sparrer/55637.html ]
|--------------------------------|-------------------------------|
|--------------------------------|-------------------------------|
|--------------------------------|-------------------8-9-11-8----|
|--------------------------------|-----8-9-11-8----9-------------|
|------6-7-9-6------8-9-11-8-----|---9---------------------------|
|---7-------------9--------------|-------------------------------|
    B             C#                 F#          (this lick is not
                                                         Accurate)


|--------------------------------|-------------------------------|
|--------------------------------|-------------17-19-17-19b-17---|
|-----8-9-11-8-----10-11-13-10---|----15-16-18----------------18~|
|--9------------11---------------|-16----------------------------|
|--------------------------------|-------------------------------|
|--------------------------------|-------------------------------|
    B            C#                  F# (this is the hardest bar)


|--------------------------------|
|--------------------------------|
|--------------------------------|
|--------------------------------|
|-19--18--17---------------------|
|--------------------------------|
  F#   F   E




Related for England Belongs To Me tab
×
Best way to learn
"England Belongs To Me"