Guitaretab - guitar tabs
Song name
# A B C D E F G H I J K L M N O P Q R S T U V W X Y Z

Cockburn Bruce - Wondering Where The Lions Are tab

HI,
this is wondering where the lions are by Bruce Cockburn
I'm quite sure this tab is right

mind the tuning : D  A  D  G  B  e

Capo on 2!!


Structure : 
  -intro
  -Verse 1
  -Verse 2
  -Chorus 1
  -Verse 3
  -Chorus 1
  -Verse 4
  -Chorus 2



Intro
  e|-------7-----------7-----------7--------------------------|
  B|-------9-----------9-----------9----------9---------------|
  G|----9-----9-----9-----9-----9-----9---11------------------|
  D|-------0-----------0-----------0-------------0------------|
  A|----------------------------------------------------------|
  D|-0-----------0-----------0------------00------------------|


  e|-0--------------0-----0--------------0--------------------|
  B|----3-----3--------3-----3-----3--------3-----------------|
  G|-------4--------------------4-----------------------------|
  D|-------5-----------5--------5-----------5-----------------|
  A|----------------------------------------------------------|
  D|-5-----------5--------5-----------5-----------------------|


  e|-------7-----------7-----------7--------------------------|
  B|-------9-----------9-----------9----------9---------------|
  G|----9-----9-----9-----9-----9-----9---11------------------|
  D|-------0-----------0-----------0-------------0------------|
  A|----------------------------------------------------------|
  D|-0-----------0-----------0------------00------------------|


  e|-0--------------0-----0--------------0--------------------|
  B|----3-----3--------3-----3-----3--------3-----------------|
  G|-------4--------------------4-----------------------------|
  D|-------5-----------5--------5-----------5-----------------|
  A|----------------------------------------------------------|
  D|-5-----------5--------5-----------5-----------------------|




Verse :
  1. Sun's  up,  uh  huh,  looks  okay
  2. Walls  windows  trees,  waves  coming  through
  3. Huge  orange  flying  boat  rises  off  a  lake
  e|-------7-----------7-----------7--------------------------|
  B|-------9-----------9-----------9----------9---------------|
  G|----9-----9-----9-----9-----9-----9---11------------------|
  D|-------0-----------0-----------0-------------0------------|
  A|----------------------------------------------------------|
  D|-0-----------0-----------0------------00------------------|


  world  survives  into  another  day  and  I'm
  you  be  in  me  and  I'll  be  in  you  to-
  thousand  year  old  petroglyphs  doing  a  double  take  pointing  a
  e|-0--------------0-----0--------------0--------------------|
  B|----3-----3--------3-----3-----3--------3-----------------|
  G|-------4--------------------4-----------------------------|
  D|-------5-----------5--------5-----------5-----------------|
  A|----------------------------------------------------------|
  D|-5-----------5--------5-----------5-----------------------|


  thinking  about  eternity,  some  kind  of
  -gether  in  eternity,  some  kind  of
  finger  at  eternity,  I'm  sitting  in  the
  e|-------7-----------7-----------7--------------------------|
  B|-------9-----------9-----------9----------9---------------|
  G|----9-----9-----9-----9-----9-----9---11------------------|
  D|-------0-----------0-----------0-------------0------------|
  A|----------------------------------------------------------|
  D|-0-----------0-----------0------------00------------------|


  ecstasy  got  a  hold  on  me__
  ecstacy  got  a  hold  on  me__
  middle  of  this  ecstasy__
  e|-0--------------0-----0--------------0--------------------|
  B|----3-----3--------3-----3-----3--------3-----------------|
  G|-------4--------------------4-----------------------------|
  D|-------5-----------5--------5-----------5-----------------|
  A|----------------------------------------------------------|
  D|-5-----------5--------5-----------5-----------------------|


  __me
  __me
  __cy
  e|-------7-----------7-----------7--------------------------|
  B|-------9-----------9-----------9----------9---------------|
  G|----9-----9-----9-----9-----9-----9---11------------------|
  D|-------0-----------0-----------0-------------0------------|
  A|----------------------------------------------------------|
  D|-0-----------0-----------0------------00------------------|


  e|-0--------------0-----0--------------0--------------------|
  B|----3-----3--------3-----3-----3--------3-----------------|
  G|-------4--------------------4-----------------------------|
  D|-------5-----------5--------5-----------5-----------------|
  A|----------------------------------------------------------|
  D|-5-----------5--------5-----------5-----------------------|


  Had  another  dream  about  lions  at  the  door  they
  Up  among  the  firs  where  it  smells  so  sweet  or
  Young  men  marching,  helmets  shining  in  the  sun
  e|-------7-----------7-----------7--------------------------|
  B|-------9-----------9-----------9----------9---------------|
  G|----9-----9-----9-----9-----9-----9---11------------------|
  D|-------0-----------0-----------0-------------0------------|
  A|----------------------------------------------------------|
  D|-0-----------0-----------0------------00------------------|


  weren't  half  as frightning  as  they  were  before  but  I'm
  down  in  the  valley  where  the  river  used  to  be  I  got  my
  polished  and  precise  like  the  brain  behind  the  gun (should be)
  e|-0--------------0-----0--------------0--------------------|
  B|----3-----3--------3-----3-----3--------3-----------------|
  G|-------4--------------------4-----------------------------|
  D|-------5-----------5--------5-----------5-----------------|
  A|----------------------------------------------------------|
  D|-5-----------5--------5-----------5-----------------------|


  thinking  about  eternity,  some kind of
  mind  on  eternity,  some kind  of
  they  got  me  thinking  about  eternity,  some  kind  of
  e|-------7-----------7-----------7--------------------------|
  B|-------9-----------9-----------9----------9---------------|
  G|----9-----9-----9-----9-----9-----9---11------------------|
  D|-------0-----------0-----------0-------------0------------|
  A|----------------------------------------------------------|
  D|-0-----------0-----------0------------00------------------|


  ecstacy  got  a  hold  on  me__
  ecstacy  got  a  hold  on  me,  and I'm
  ecstasy  got  a  hold  on
  e|-0--------------0-----0--------------0--------------------|
  B|----3-----3--------3-----3-----3--------3-----------------|
  G|-------4--------------------4-----------------------------|
  D|-------5-----------5--------5-----------5-----------------|
  A|----------------------------------------------------------|
  D|-5-----------5--------5-----------5-----------------------|

[ Tab from: http://www.guitaretab.com/c/cockburn-bruce/3658.html ]
  __me
  (skip these two bars for the second verse)
  me
  e|-------7-----------7-----------7--------------------------|
  B|-------9-----------9-----------9----------9---------------|
  G|----9-----9-----9-----9-----9-----9---11------------------|
  D|-------0-----------0-----------0-------------0------------|
  A|----------------------------------------------------------|
  D|-0-----------0-----------0------------00------------------|


  e|-0--------------0-----0--------------0--------------------|
  B|----3-----3--------3-----3-----3--------3-----------------|
  G|-------4--------------------4-----------------------------|
  D|-------5-----------5--------5-----------5-----------------|
  A|----------------------------------------------------------|
  D|-5-----------5--------5-----------5-----------------------|


Chorus : (1)
  wondering  where  the  lions  are,  I'm
  e|-------3-----------3-----------3-----------3--------------|
  B|-------3-----------3-----------3-----------3--------------|
  G|----0-----0-----0-----0-----0-----0-----0-----0-----------|
  D|-------0-----------0-----------0-----------0--------------|
  A|----------------------------------------------------------|
  D|-2-----------2-----------2-----------2--------------------|


  wondering  where  the  lions  are,  I'm
  e|-------2-----------2-----------2-----------2--------------|
  B|-------3-----------3-----------3-----------3--------------|
  G|----2-----2-----2-----2-----2-----2-----2-----2-----------|
  D|-------0-----------0-----------0-----------0--------------|
  A|----------------------------------------------------------|
  D|-0-----------0-----------0-----------0--------------------|


  wondering  where  the  lions  are,  I'm
  e|-------3-----------3-----------3-----------3--------------|
  B|-------3-----------3-----------3-----------3--------------|
  G|----0-----0-----0-----0-----0-----0-----0-----0-----------|
  D|-------0-----------0-----------0-----------0--------------|
  A|----------------------------------------------------------|
  D|-2-----------2-----------2-----------2--------------------|


  wondering  where  the  lions  are,  I'm
  e|-------2-----------2-----------2-----------2--------------|
  B|-------3-----------3-----------3-----------3--------------|
  G|----2-----2-----2-----2-----2-----2-----2-----2-----------|
  D|-------0-----------0-----------0-----------0--------------|
  A|----------------------------------------------------------|
  D|-0-----------0-----------0-----------0--------------------|



  wondering  where  the  lions  are,  mm hm  I'm
  e|-------3-----------3-----------3-----------3--------------|
  B|-------3-----------3-----------3-----------3--------------|
  G|----0-----0-----0-----0-----0-----0-----0-----0-----------|
  D|-------0-----------0-----------0-----------0--------------|
  A|----------------------------------------------------------|
  D|-2-----------2-----------2-----------2--------------------|


  wondering  where  the  lions  are  ah
  e|-------2-----------2-----------2-----------2--------------|
  B|-------3-----------3-----------3-----------3--------------|
  G|----2-----2-----2-----2-----2-----2-----2-----2-----------|
  D|-------0-----------0-----------0-----------0--------------|
  A|----------------------------------------------------------|
  D|-0-----------0-----------0-----------0--------------------|


  aah  aah  aah  aah
  e|-------3-----------3-----------3-----------3--------------|
  B|-------3-----------3-----------3-----------3--------------|
  G|----0-----0-----0-----0-----0-----0-----0-----0-----------|
  D|-------0-----------0-----------0-----------0--------------|
  A|----------------------------------------------------------|
  D|-2-----------2-----------2-----------2--------------------|


  e|-------2-----------2-----------2-----------2--------------|
  B|-------3-----------3-----------3-----------3--------------|
  G|----2-----2-----2-----2-----2-----2-----2-----2-----------|
  D|-------0-----------0-----------0-----------0--------------|
  A|----------------------------------------------------------|
  D|-0-----------0-----------0-----------0--------------------|




  Verse :
  4. Freighters  on  the  nod  on  the  surface  of  the  bay
  e|-------7-----------7-----------7--------------------------|
  B|-------9-----------9-----------9----------9---------------|
  G|----9-----9-----9-----9-----9-----9---11------------------|
  D|-------0-----------0-----------0-------------0------------|
  A|----------------------------------------------------------|
  D|-0-----------0-----------0------------00------------------|


  one  of  these  days  we're  going  to  sail  away
  e|-0--------------0-----0--------------0--------------------|
  B|----3-----3--------3-----3-----3--------3-----------------|
  G|-------4--------------------4-----------------------------|
  D|-------5-----------5--------5-----------5-----------------|
  A|----------------------------------------------------------|
  D|-5-----------5--------5-----------5-----------------------|

  going  to  sail  into  eternity
  e|-------7-----------7-----------7--------------------------|
  B|-------9-----------9-----------9----------9---------------|
  G|----9-----9-----9-----9-----9-----9---11------------------|
  D|-------0-----------0-----------0-------------0------------|
  A|----------------------------------------------------------|
  D|-0-----------0-----------0------------00------------------|

  some  kind  of  ecstasy  got  a  hold  on  
  e|-0--------------0-----0--------------0--------------------|
  B|----3-----3--------3-----3-----3--------3-----------------|
  G|-------4--------------------4-----------------------------|
  D|-------5-----------5--------5-----------5-----------------|
  A|----------------------------------------------------------|
  D|-5-----------5--------5-----------5-----------------------|

  me
  e|-------7-----------7-----------7--------------------------|
  B|-------9-----------9-----------9----------9---------------|
  G|----9-----9-----9-----9-----9-----9---11------------------|
  D|-------0-----------0-----------0-------------0------------|
  A|----------------------------------------------------------|
  D|-0-----------0-----------0------------00------------------|

  						and  I'm
  e|-0--------------0-----0--------------0--------------------|
  B|----3-----3--------3-----3-----3--------3-----------------|
  G|-------4--------------------4-----------------------------|
  D|-------5-----------5--------5-----------5-----------------|
  A|----------------------------------------------------------|
  D|-5-----------5--------5-----------5-----------------------|


  Chorus : (2)
  wondering  where  the  lions  are,  and  I'm
  e|-------3-----------3-----------3-----------3--------------|
  B|-------3-----------3-----------3-----------3--------------|
  G|----0-----0-----0-----0-----0-----0-----0-----0-----------|
  D|-------0-----------0-----------0-----------0--------------|
  A|----------------------------------------------------------|
  D|-2-----------2-----------2-----------2--------------------|

  wondering  where  the  lions  are,  and  I'm
  e|-------2-----------2-----------2-----------2--------------|
  B|-------3-----------3-----------3-----------3--------------|
  G|----2-----2-----2-----2-----2-----2-----2-----2-----------|
  D|-------0-----------0-----------0-----------0--------------|
  A|----------------------------------------------------------|
  D|-0-----------0-----------0-----------0--------------------|
  
  Keep repeating these two bars and end with a fade-out

  END
  
Related for Wondering Where The Lions Are tab
×
Best way to learn
"Wondering Where The Lions Are"