Song name
# A B C D E F G H I J K L M N O P Q R S T U V W X Y Z

Cocteau Twins - Cherry Coloured Funk tab

Cocteau Twins, Cherry Coloured Funk
Standard tuning
Guitar effects: delay (delay time in pace w/ tempo), reverb, heavy phaser or chorus
Steady tempo, downstrokes only, listen to the song for # of strums

 Verse
  A7 (5th fret)  C#m7 (4th)      D (5th)         D
||--------------|-7-------4----|-5-------------|-5------------||
||-5------------|-5-------5----|-7-------------|-7------------||
||-6------------|-4-------4----|-7-------------|-7------------||
||-5------------|-6-------6----|-7-------------|-7------------||
||-7------------|-4-------4----|-5-------------|-5------------||
||--------------|--------------|---------------|--------------||

Chorus
   A (9th)         C#m7 (9th)    D(5th or 10th)  D
||-9-------12--9|--9-----------|-10------------|--------------||
||-10------10-10|--9-----------|-10------------|--------------||
||-9--------9--9|--9-----------|-11------------|--------------||
||-11------11-11|--9-----------|-12------------|--------------||
||-9--------9--9|-11-----------|-12------------|--------------||
||--------------|--------------|---------------|--------------||

Bridge (starts around the 1:58 mark)
   Bm (7th)       E (7th)        F#m (5th)       D (5th)
||-7------------|-7------------|-5-------------|-5------------||
||-7------------|-9------------|-7-------------|-7------------||
||-7------------|-9------------|-6-------------|-7------------||
||-9------------|-9------------|-7-------------|-7------------||
||-9------------|-7------------|-5-------------|-5------------||
||--------------|--------------|---------------|--------------||

Transition back to Chorus after Bridge: Just keep repeating that last D chord a few more 
bars then go right into the chorus.

The bridge can be hard to discern and I know other people play different chords.
Instead of the F#m, you can also try barring a C#m7 at the 9th fret, which sounds good. 
You could also play the F#m at the 9th fret.
Tap to rate this tab
# A B C D E F G H I J K L M N O P Q R S T U V W X Y Z