Song name
# A B C D E F G H I J K L M N O P Q R S T U V W X Y Z

Cody Allen - Oddity tab

"ODDITY" by Coal Chamber
Tabbed by Matt Sonesen (nailbomb_x@hotmail.com)


Tuning CGCFAd so...Drop E 2 full steps, and all other strings 1 step


Chords

Part A			Part B		Part C
F|-------------------------------------------------------------------
C|---------------------|-----------|-4-4-5-5-4-5-4-5-----------------
G|-0-0-0-1-1-0-0-1-0-1-|-0-0---0-0-|-2-2-3-3-2-3-2-3-----------------
C|-0-0-0-1-1-0-0-1-0-1-|-0-0---0-0-|---------------------------------


Part D			Part E
F|-------------------|-----------------------------------------------
C|-------------------|-----------------------------------------------
G|-2-2-3/5-3-3-3/5-2-|-/6-5-0-2-3-0----------------------------------
C|-------------------|-/6-5-0-2-3-0----------------------------------


Structure

A x 4 - Intro
A x 7
6 x B - Verse 1
7 x A
6 x B - Verse 2
7 x A
8 x C
-break-
3 x D
4 x F
----A plays throughout the ending...

Lyrics

This is the way it's got to be....

Crawl beneath this filthy ground
and underneath this dirty ground
I crawl beneath this filthy ground
and underneath these dirty leaves

Seems to me to be the insanity
it seems to me I've become the oddity
it seems to me I've need some identity
seems to me I've become the oddity

Keep this high now keep this high
said I better
Keep this high now keep this high
said I better
Keep this high now keep this high
said I better
Keep this high now keep this high

This is the way it's got to be...

No fear, so depraved, break

----
Tap to rate this tab
# A B C D E F G H I J K L M N O P Q R S T U V W X Y Z