Song name
# A B C D E F G H I J K L M N O P Q R S T U V W X Y Z

Cody Wilkerson - Seether tab

INTRO=
E-----------------------------------------------|
B-----------------------------------------------|
G-----------------------------------------------|
D-7-----3-----0---------------------------------|
A-7-----3-----0---------------------------------|
D-7-----3-----0-----7-7-7-7---3-3-3-3-0-0-0-0-0-|

VERSE=
YOU TAKE AWAY,
OOH SO MUCH PAIN,
BUT I FEEL ASTRAY,
WHEN I FALL AWAY,

CHORUS=
DISTORTION:

E---------------------------------------------------------------------|
B---------------------------------------------------------------------|
G---------------------------------------------------------------------|
D---------------------------------------------------------------------|
A-7-7-7-3-3-3-3-0-0-0-0-7-7-7-7-7-3-3-3-3-3-3-0-0-0-0-5-5-5-6-6-6-0-0-|
D-7-7-7-3-3-3-3-0-0-0-0-7-7-7-7-7-3-3-3-3-3-3-0-0-0-0-5-5-5-6-6-6-0-0-|

IT'S NOTHING BOUT YOUR LIES,
IT'S NOTHING BOUT YOUR BREATHE,
IT'S SOMETHING BOUT THE WAY YOU LOOK AT ME,
THERE'S NOTHING IN THIS WORLD,
THAT CAN EVER COMPARE,
TO THE WAY YOU MAKE ME FEEL,

VERSE=
YOUR EYES SHINE IN WAVES,
CONQUER MY SOUL IN GRAVE,
TEAR MY SOUL AWAY,
TO MAKE ME FREE AGAIN,

REPEAT CHORUS WITH DISTORTION:

SOLO=
E13-13-16-15-13-15-----13-13-16-15-13-15--------------|
B-----------------15-14-----------------15-14---------|
G-----------------------------------------------------|
D-----------------------------------------------------|
A-----------------------------------------------------|
D-----------------------------------------------------|

THE END
Tap to rate this tab
 
# A B C D E F G H I J K L M N O P Q R S T U V W X Y Z