Song name
# A B C D E F G H I J K L M N O P Q R S T U V W X Y Z

Coheed And Cambria - Dark Side Of Me tab

Song Title: Dark Side of Me
Band Name: Coheed and Cambria
Album Name: The Afterman: Descension [2012]

Intro:

Travis:
e||---------------------------------------------------------------|
B||---------------------------------------------------------------|
G||-3---0---0----5---0---0---8-----7------------8-----------------|
D||--------------------------------------10-----------10-----8----| 2x
A||-3-----3-------------------------------------------------------|
E||--------------4-----4-----6-6-6-6-6-6-6--6-6-6-6-6-6--6-6-6----|

Stanza 1:

Travis:
e||---------------------------------------------------------------|
B||---------------------------------------------------------------|
G||-3---0---0----5---0---0---8-----7------------8-----------------|
D||--------------------------------------10-----------10-----8----|
A||-3-----3-------------------------------------------------------|
E||--------------4-----4-----6-6-6-6-6-6-6--6-6-6-6-6-6--6-6-6----|

e||-----------------------------------------------------------------|
B||-----------------------------------------------------------------|
G||-3---0---0----5---0---0---8-----7------------8-------------------|
D||--------------------------------------10-----------10-----8------|
A||-3-----3---------------------------------------------------------|
E||--------------4-----4-----6-6-6-6-6-6-6--6-6-6-6-6-6--6-6-6------|

e||-----------------------------------------------------------------|
B||-----------------------------------------------------------------|
G||-3---0---0----5---0---0---8-----7------------8-------------------|
D||--------------------------------------10-----------10-----8------|
A||-3-----3---------------------------------------------------------|
E||--------------4-----4-----6-6-6-6-6-6-6--6-6-6-6-6-6--6-6-6------|


e||------------------------------------------------|
B||------------------------------------------------|
G||-3---0---0----5---0---0---8-----7------------8--|
D||--------------------------------------10--------|
A||-3-----3----------------------------------------|
E||--------------4-----4-----6-6-6-6-6-6-6--6-6-6--|

Claudio: (Enters in 3rd part of Stanza 1)

e||------------------||  ||----------------------------------|
B||------------------||  ||----------------------------------|
G||---------3-0------||  ||----------------------------------|
D||---5-6-3----------||6x||-5-5-5-5-5-5-5-5-5-5-5-5-5-5-5-5--|
A||-3-----------6-3--||  ||----------------------------------|
E||------------------||  ||----------------------------------|
    * * * * * * * *

Chorus:

Travis:

e||----------------------------||  ||-----------------------|
B||----------------------------||  ||-----------------------|
G||----10--12--8-----8--10-----||  ||-8---------------------|
D||-8-------------8---------8--||7x||----12--10--8------12--|
A||----------------------------||  ||---------------10------|
E||----------------------------||  ||-----------------------|

Claudio:

e||------------------------------------------------------------------------||  ||-----|
B||------------------------------------------------------------------------||  ||-----|
G||-2222222222222222--5555555555555555--5555555555555555--33333333XXXXX-//-||  ||-5~--|
D||-3333333333333333--6666666666666666--5555555555555555--33333333XXXXX-//-||2x||-5~--|
A||-3333333333333333--6666666666666666--3333333333333333--11111111XXXXX-//-||  ||-3~--|
E||-1111111111111111--4444444444444444----------------------------XXXXX-//-||  ||-----|


Stanza 2:

Travis:

e||---------------------------------------------------------------|
B||---------------------------------------------------------------|
G||-3---0---0----5---0---0---8-----7------------8-----------------|
D||--------------------------------------10-----------10-----8----|
A||-3-----3-------------------------------------------------------|
E||--------------4-----4-----6-6-6-6-6-6-6--6-6-6-6-6-6--6-6-6----|

e||--------------------------------------------------|
B||--------------------------------------------------|
G||-3---0---0----5---7p5---5---8-----7------------8--|
D||----------------------------------------10--------|
A||-3-----3------------------------------------------|
E||--------------4-------4-----6-6-6-6-6-6-6--6-6-6--|

e||---------------------------------------------------------------|
B||---------------------------------------------------------------|
G||-3---0---0----5---0---0---8-----7------------8-----------------|
D||--------------------------------------10-----------10-----8----|
A||-3-----3-------------------------------------------------------|
E||--------------4-----4-----6-6-6-6-6-6-6--6-6-6-6-6-6--6-6-6----|

e||--------------------------------------------------|
B||--------------------------------------------------|
G||-3---0---0----5---7p5---5---8-----7------------8--|
D||----------------------------------------10--------|
A||-3-----3------------------------------------------|
E||--------------4-------4-----6-6-6-6-6-6-6--6-6-6--|

Claudio:

e||------------------||  ||----------------------------------|
B||------------------||  ||----------------------------------|
G||---------3-0------||  ||----------------------------------|
D||---5-6-3----------||6x||-5-5-5-5-5-5-5-5-5-5-5-5-5-5-5-5--|
A||-3-----------6-3--||  ||----------------------------------|
E||------------------||  ||----------------------------------|
    * * * * * * * *

Chorus:

Travis:

e||----------------------------||  ||-----------------------|
B||----------------------------||  ||-----------------------|
G||----10--12--8-----8--10-----||  ||-8---------------------|
D||-8-------------8---------8--||7x||----12--10--8------12--|
A||----------------------------||  ||---------------10------|
E||----------------------------||  ||-----------------------|

Claudio:

e||------------------------------------------------------------------------|
B||------------------------------------------------------------------------|
G||-2222222222222222--5555555555555555--5555555555555555--33333333XXXXX-//-|
D||-3333333333333333--6666666666666666--5555555555555555--33333333XXXXX-//-| 2x
A||-3333333333333333--6666666666666666--3333333333333333--11111111XXXXX-//-|
E||-1111111111111111--4444444444444444----------------------------XXXXX-//-|

Bridge:

Claudio:

e||---------------------------------------------------------------------------|
B||---------------------------------------------------------------------------|
G||-------------------5555555555555555--------------------55555555--33333333--|
D||-6666666666666666--5555555555555555--6666666666666666--55555555--33333333--| 2x
A||-6666666666666666--3333333333333333--6666666666666666--33333333--11111111--|
E||-4444444444444444--------------------4444444444444444----------------------|

Travis:

(Note: Not Sure About This Part..)

e||-3-----7-----3-----7-----4p3-----8-----10-----11-----13-----13-11-10-8---|
B||---4-----4-----4-----4-------4-----8------8------8------8----------------|
G||-----5-----5-----5-----5-------5-----8------8------8------8--------------|
D||-------------------------------------------------------------------------| 4x
A||-------------------------------------------------------------------------|
E||-------------------------------------------------------------------------|

e||----------------------------|
B||----------------------------|
G||----10--12--8-----8--10-----|
D||-8-------------8---------8--| 2x
A||----------------------------|
E||----------------------------|

(Repeat Chorus and Bridge)

Last Chords

e||-----
B||-----
G||-----
D||-6~--
A||-6~--
E||-4~--


Please Rate and Comment for Corrections.. :D
Tap to rate this tab
# A B C D E F G H I J K L M N O P Q R S T U V W X Y Z