Song name
# A B C D E F G H I J K L M N O P Q R S T U V W X Y Z

Coheed And Cambria - Featers tab

-------------------------------------------------------------------------------
			     FEATHERS - Coheed and Cambria 
-------------------------------------------------------------------------------
Tabbed by: Daniella Zeman
Email: totallyjesus@cbgb.net
Album: No World For Tomorrow
Written by: Claudio Sanchez and Travis Stever 

Tuning: eBGDAE

Guitar 1:
e|-----------------------------------------------------------------------|
B|--(palm mute)----------------------------------------------------------|
G|-----------------------------------------------------------------------|
D|-14-14-14-14-14-14-14-14---14------------------------------------------|
A|-14-14-14-14-14-14-14-14---14---(etc you figure out the rythm)---------|
E|-12-12-12-12-12-12-12-12---11------------------------------------------|

Guitar 2:
e|----------------------------------------------------------------------|
B|----------------------------------------------------------------------|
G|------11-----13-----16-----13-11------11-----13-----14-----13-11------|
D|-14-14--14-14--14-14--14-14------11-11--11-11--11-11--11-11-----14----|
A|----------------------------------------------------------------------|
E|----------------------------------------------------------------------|

| /  slide up
| \  slide down
| h  hammer-on
| p  pull-off
| ~  vibrato
| +  harmonic
| x  Mute note
===============================================================================
Tap to rate this tab
# A B C D E F G H I J K L M N O P Q R S T U V W X Y Z