Song name
# A B C D E F G H I J K L M N O P Q R S T U V W X Y Z

Cold - Confession tab

Help us improve GuitareTab! Take a short survey!
Artist - Cold
Song - Confession
Album - 13 Ways to Bleed on Stage
Tuning - 2 steps down, (low to high) C F Bb Eb G C


Intro (guitar 1)
------0-------0-------0-------0-------0-------0-------0-------0----|
----6---6---6---6---6---6---6---6---6---6---6---6---6---6---6---6--|
--7-------7-------5-------5----------------------------------------|
----------------------------------7-------7-------8-------8--------|
-------------------------------------------------------------------|
-------------------------------------------------------------------|

Verse (guitar 1)
------0-------0-------0-------0-------0-------0-------0-------0----|
----6---6---6---6---6---6---6---6---6---6---6---6---6---6---6---6--|
--7-------7-------5-------5----------------------------------------|
----------------------------------7-------7-------8-------8--------|
-------------------------------------------------------------------|
-------------------------------------------------------------------|

   (guitar 2)
  D5                     C5
-------------------------------------------------|
-------------------------------------------------|
--7--7--7-7--7-7--7--7-7-5--5--5-5--5-5--5--5-5--|
--7--7--7-7--7-7--7--7-7-5--5--5-5--5-5--5--5-5--|
--5--5--5-5--5-5--5--5-5-3--3--3-3--3-3--3--3-3--|
-------------------------------------------------|

  A5                        A#5            C5
-------------------------------------------------------|
-------------------------------------------------------|
--2--2--2-2--2-2--2--2-2--2/3--3-3--3-3--3/5--5-5-5-5--|
--2--2--2-2--2-2--2--2-2--2/3--3-3--3-3--3/5--5-5-5-5--|
--0--0--0-0--0-0--0--0-0--0h1--1-1--1-1--1/3--3-3-3-3--|
-------------------------------------------------------|
  Chorus
  D5                      C5
------------------------------------------|
------------------------------------------|
--7--7--7-7--7-7--7-7-7-7-5--5--5-5--5-5--|
--7--7--7-7--7-7--7-7-7-7-5--5--5-5--5-5--|
--5--5--5-5--5-5--5-5-5-5-3--3--3-3--3-3--|
------------------------------------------|


  A5                        A#5         C5
-----------------------------------------------------|
-----------------------------------------------------|
-----------------------------------------------------|
--7-7-x-x-x-x-7-7-x-x-x-x-7/8-8-8-8-8-8/10-10-10-10--|
--7-7-x-x-x-x-7-7-x-x-x-x-7/8-8-8-8-8-8/10-10-10-10--|
--5-5-x-x-x-x-5-5-x-x-x-x-5/6-6-6-6-6-6/-8--8--8--8--|

Bridge (guitar 2)

--------------------------------------------|
--------------------------------------------|
---2-2h3---2-2h3-2-----2-2------------------|
-0-------0---------0-----------3-------2----|
---------------------0-------3---3---2---2--|
---------------------------1-------0--------|

--------------------------------------------|
--------------------------------------------|
---2-2h3---2-2h3-2-----2-2------------------|
-0-------0---------0-----------3-------2----|
---------------------0-------3---3---2---2--|
---------------------------1-------0--------|

                            F5      E5
---------------------------------------------|
---------------------------------------------|
----2-2h3---2-2h3-2-----2-2------------------|
--0-------0---------0-------3-3-3-3-2-2-2-2--|
----------------------0-----3-3-3-3-2-2-2-2--|
----------------------------1-1-1-1-0-0-0-0--|


 (Guitar 1)
------0-------0-------0-------0-------0-------0-------0-------0----|
----6---6---6---6---6---6---6---6---6---6---6---6---6---6---6---6--|
--7-------7-------5-------5----------------------------------------|
----------------------------------7-------7-------8-------8--------|
-------------------------------------------------------------------|
-------------------------------------------------------------------|
Related for Confession tab