Song name
# A B C D E F G H I J K L M N O P Q R S T U V W X Y Z

Cold - With My Mind tab

Artist: Cold
Song: With My Mind
Album: Psi-Ops Video Game Soundtrack
Tabbed by: Dethblooms18
Tuning: |--C--|
        |--G--|
        |--Eb-|
        |--Bb-|
        |--F--|
        |--C--|


Well here's my life story, I LOVE this song and I think it's a great injustice to humanity  that
no one has ever tabbed this song for us common folk without that fancy Pro Tab.
So I took a stab at it and I feel pretty confident about 90% of it.



******** INTRO ********

Guitar 1
|------------------|--------------|--------------|-----------------|
|------------------|--------------|--------------|-----------------|
|------------------|--------------|--------------|-----------------|
|------------------|--------------|--------------|-----------------|       --
|--3-3-3-3-3-3-3-3_|--10-10-10-10-|--11-11-11-11-|--3-----3-----3--|         |
|--1-1-1-1-1-1-1-1-|--8--8--8--8--|--9--9--9--9--|--1-0-0-1-0-0-1--|         | 
                                                                             | 
                                                                             | X2
|------------------|--------------|--------------|--------------------|      |
|------------------|--------------|--------------|--------------------|      |
|------------------|--------------|--------------|--------------------|     -
|------------------|--------------|--------------|--------------------|
|--3-3-3-3-3-3-3-3-|--10-10-10-10-|--11-11-11-11-|--6-6-6-6-5-5-5-5-5-|
|--1-1-1-1-1-1-1-1-|--8--8--8--8--|--9--9--9--9--|--4-4-4-4-3-3-3-3-3-|


Guitar 2
|-------------------------------|------------------------------------|
|-------------------------------|------------------------------------|
|-------------------------------|------------------------------------|
|-------10/9\10---12--12---13---|----10/9\10---12--12h13--13--12--8--| X2
|-------------------------------|------------------------------------|
|-------------------------------|------------------------------------|



******** VERSE *********

Guitar 1 (Use tremolo effect with a little echo or delay)
|--------8---------8p9-----------8--------8---------8p9--|
|----5--------5------------5---------5-------------------|  (Feel free to mix it up the order
|--------------------------------------------------------|     this is just how I hear it)
|--------------------------------------------------------| X2
|--------------------------------------------------------|
|--------------------------------------------------------|


Guitar 2 (Comes in at 0:30 with echo or delay)
|--12--------15--|---16---15~~~~~~~-|
|------12--------|------------------|
|----------------|------------------|
|----------------|------------------|
|----------------|------------------|
|----------------|------------------|



******** CHORUS ********


Guitars 1 and 2 (Guitar 2 can play the intro riff but its barely heard in the recording)
|------------------|--------------|--------------|-----------------|
|------------------|--------------|--------------|-----------------|
|------------------|--------------|--------------|-----------------|
|------------------|--------------|--------------|-----------------|       --
|--3-3-3-3-3-3-3-3_|--10-10-10-10-|--11-11-11-11-|--3-----3-----3--|         |
|--1-1-1-1-1-1-1-1-|--8--8--8--8--|--9--9--9--9--|--1-0-0-1-0-0-1--|         | 
                                                                             | 
                                                                             | X2
|------------------|--------------|--------------|--------------------|      |
|------------------|--------------|--------------|--------------------|      |
|------------------|--------------|--------------|--------------------|     -
|------------------|--------------|--------------|--------------------|
|--3-3-3-3-3-3-3-3-|--10-10-10-10-|--11-11-11-11-|--6-6-6-6-5-5-5-5-5-|
|--1-1-1-1-1-1-1-1-|--8--8--8--8--|--9--9--9--9--|--4-4-4-4-3-3-3-3-3-|



******** VERSE 2 ********

Guitar 1 (These bends are slow and gradually) 
|------------------------------------|
|------------------------------------|
|----^---------^---------^-----------|
|--10^------12^------10^------13--8--| X2
|------------------------------------|
|------------------------------------|



Guitar 2 (Start with Guitar 1 and play TWICE)
|--12--------15--|---16---15~~~~~~~-|
|------12--------|------------------|
|----------------|------------------| 2X
|----------------|------------------| 
|----------------|------------------|
|----------------|------------------|



******* CHORUS ********

Guitars 1 and 2
|------------------|--------------|--------------|-----------------|
|------------------|--------------|--------------|-----------------|
|------------------|--------------|--------------|-----------------|
|------------------|--------------|--------------|-----------------|       --
|--3-3-3-3-3-3-3-3_|--10-10-10-10-|--11-11-11-11-|--3-----3-----3--|         |
|--1-1-1-1-1-1-1-1-|--8--8--8--8--|--9--9--9--9--|--1-0-0-1-0-0-1--|         | 
                                                                             | 
                                                                             | X2
|------------------|--------------|--------------|--------------------|      |
|------------------|--------------|--------------|--------------------|      |
|------------------|--------------|--------------|--------------------|     -
|------------------|--------------|--------------|--------------------|
|--3-3-3-3-3-3-3-3-|--10-10-10-10-|--11-11-11-11-|--6-6-6-6-5-5-5-5-5-|
|--1-1-1-1-1-1-1-1-|--8--8--8--8--|--9--9--9--9--|--4-4-4-4-3-3-3-3-3-|


******** BRIDGE ********


Guitar 1 (play muffled and with little distortion)
|-------------------------|
|-------------------------|
|-------------------------|
|-------------------------|X4
|--3---3-------10---5--6--|
|--1---1--0-0--8----3--4--|


Guitar 2 (acoustic or clean)
|--------------------------------|-----------------------------------------|
|--------------------------------|-----------------------------------------|
|------13-----12-----13------12--|------13-----12------13------12-------8--|
|--10-----10-----10------10------|--10------10------10------10-------------|
|--------------------------------|-----------------------------------------|
|--------------------------------|-----------------------------------------|


Guitars 1 and 2 (full distortion)
--------------------------|
|-------------------------|
|-------------------------|
|-------------------------| X8
|--3--3--0-0---10---5--6--|
|--1--1--0-0---8----3--4--|




******* CHORUS ********

Guitars 1 and 2 (Guitar 2 does play the intro riff the last 8 measures)
|------------------|--------------|--------------|-----------------|
|------------------|--------------|--------------|-----------------|
|------------------|--------------|--------------|-----------------|
|------------------|--------------|--------------|-----------------|       --
|--3-3-3-3-3-3-3-3_|--10-10-10-10-|--11-11-11-11-|--3-----3-----3--|         |
|--1-1-1-1-1-1-1-1-|--8--8--8--8--|--9--9--9--9--|--1-0-0-1-0-0-1--|         | 
                                                                             | 
                                                                             | X2
|------------------|--------------|--------------|--------------------|      |
|------------------|--------------|--------------|--------------------|      |
|------------------|--------------|--------------|--------------------|     -
|------------------|--------------|--------------|--------------------|
|--3-3-3-3-3-3-3-3-|--10-10-10-10-|--11-11-11-11-|--6-6-6-6-5-5-5-5-5-|
|--1-1-1-1-1-1-1-1-|--8--8--8--8--|--9--9--9--9--|--4-4-4-4-3-3-3-3-3-|




******** OUTRO ********


Guitars 1 and 2
|-------------------------|
|-------------------------|
|-------------------------|
|-------------------------|X2
|--3--3---0-0---10--5--6--|
|--1--1---0-0---8---3--4--|
Tap to rate this tab
 
# A B C D E F G H I J K L M N O P Q R S T U V W X Y Z