Song name
# A B C D E F G H I J K L M N O P Q R S T U V W X Y Z

Cold - Blame tab

Help us improve GuitareTab! Take a short survey!
Blame

Straight C Tuning, tune down two whole steps

1=C   4=Bb
2=G   5=F
3=Eb  6=C

| --------------------------------- 
| --------------------------------- 
| -------0---------------0-------- 
| -----5---5----------4---4------
| ---5-------5------4-------4----
| -3-----------3--2-----------2--
  Intro/Verse  riff

| -----------------------------
| -----------------------------
| -----------------------------
| -5--5--5-5-5--4--4-4--4---
| -5--5--5-5-5--4--4-4--4---
| -3--3--3-3-3--2--2-2--2---
  Chorus
Related for Blame tab