Song name
# A B C D E F G H I J K L M N O P Q R S T U V W X Y Z

Coldfusion - Rage tab

-------------------------------------------------------------------------------
			     Rage-Bloodstain
----------------------------------------------------------------------------Tabbed by:Pimenov
Email:crusadeofgod@hotmail.com

Tuning:eBGDAE

e|---------RIFF 1-----------------------------------------------------------|
B|--------------------------------------------------------------------------|
G|--------------------------------------------------------------------------|
D|--------------------------------------------------------------------------|
A|------------------------------------2--5/4-5/4-5/4--2--5/6-5/6-5/6--------|
E|0-0000-00-000000-0-0000-00-000000---0--3/2-3/2-3/2--0--3/4-3/4-3/4--------|

e|--------------------------------------------------------------------------|
B|--------------------------------------------------------------------------|
G|--------------------------------------------------------------------------|
D|--------------------------------------------------------------------------|
A|2--5/4-5/4-5/4--2--5/6-5/6-5/6--------------------------------------------|
E|0--3/2-3/2-3/2--0--3/4-3/4-3/4--------------------------------------------|

e|---------RIFF-2----6-TIMES------------------------------------------------|
B|--------------------------------------------------------------------------|
G|--------------------------------------------------------------------------|
D|--------------------------------------------------------------------------|
A|0--0--0--00-00-001--0--0--0--00-00-001--0--0--0--00-00-003-2-5-3-2--------|
E|0--0--0--00-00-001--0--0--0--00-00-001--0--0--0--00-00-003-2-5-3-2--------|

e|----RIFF-3---Guitar-2-----------------------------------------------------|
B|--------------------------------------------------------------------------|
G|--------------------------------------------------------------------------|
D|--------------------------------------------------------------------------|
A|1-1-1-1-1-1-1-1-2-2-2-2-2-2-2-2-1-1-1-1-1-1-1-1-2-2-2-2-2-2-2-2-----------|
E|1-1-1-1-1-1-1-1-2-2-2-2-2-2-2-2-1-1-1-1-1-1-1-1-2-2-2-2-2-2-2-2-----------|

e|----RIFF-3--GUITAR-1------------------------------------------------------|
B|--------------------------------------------------------------------------|
G|--------------------------------------------------------------------------|
D|--------------------------------------------------------------------------|
A|---------------------------------2-------1----3---------2-------2-------1-|
E|-------------------------------------3-0---3-0-----2-1-2--2-1-2-----3-0---|

e|------RIFF-3--GUITAR-1----------------------------------------------------|
B|--------------------------------------------------------------------------|
G|--------------------------------------------------------------------------|
D|--------------------------------------------------------------------------|
A|-----3--------2-----------------------------------------------------------|
E|-3-0----2-1-2--2--3-2-----------------------------------------------------|

e|-----RIFF-4------2-TIES-()---RIFF-5----4-TIMES----------------------------|
B|------------------------()------------------------------------------------|
G|------------------------()------------------------------------------------|
D|------------------------()------------------------------------------------|
A|001-001-0000001--1-1----()--00300300300300330030030030030033-5-4-7-5-4----|
E|001-001-0000001--1-1----()--00100100100100110010010010010011-3-2-5-3-2----|

e|(1)-12hp8p5-(2)-11hp8p5-(3)-14hp8p5-(4)12hp8p5-(5)11hp8p5------------------|
B|---------------------------------------------------------------------------|
G|-SOLO=  (1)=4 TIMES (2)=4 TIMES  (3)=4 TIMES (4)=2 TIMES (5)=2 TIMES ------|
D|---------------------------------------------------------------------------|
A|---------------------------------------------------------------------------|
E|---------------------------------------------------------------------------|


| /  slide up
| \  slide down
| h  hammer-on
| p  pull-off
| ~  vibrato
| +  harmonic
| x  Mute note
===============================================================================
Tap to rate this tab
 
# A B C D E F G H I J K L M N O P Q R S T U V W X Y Z