Song name
# A B C D E F G H I J K L M N O P Q R S T U V W X Y Z

Coldplay - Viva La Vida tab

Help us improve GuitareTab! Take a short survey!
CAPO ON THE FIRST FRET

Intro

Strings arranged for Guitar 1

   (C)                       (D7sus4)                 (G)

E------------------------/------------------------/------------------------/
B--1----1----1----1--1---/--1----1--1----1--------/--0----0----0----0--0---/
G--0----0----0----0--0---/--0----0--0----0--------/--0----0----0----0--0---/
D--------------------0---/--0----0--0----0--------/------------------------/
A--3----3----3----3------/------------------------/------------------------/
E------------------------/------------------------/--3----3----3----3--0---/

   (Em)

E------------------------/
B--0----0--0----0--------/
G--0----0--0----0--------/   X2
D------------------------/
A------------------------/
E--0----0--0----0--------/

Verse

Strings arranged for Guitar

   (C)                       (D)                      (G#)

E--0--0--0----0--0--0--2-/--2--2--2--2--2--2------/-------------------0----/
B--1--1--1----1--1--1--3-/--3--3--3--3--3--3------/--3--3--3----3--3--0----/
G--0--0--0----0--0--0--2-/--2--2--2--2--2--2------/--4--4--4----4--4--0----/
D----------------------0-/--0--0--0--0--0--0------/--5--5--5----5--5-------/
A--3--3--3----3--3--3----/------------------------/------------------------/
E------------------------/------------------------/--3--3--3----3--3--0----/

    (Em)

E--0--0--0--0--0--0------/
B--0--0--0--0--0--0------/
G--0--0--0--0--0--0------/
D------------------------/
A------------------------/
E--0--0--0--0--0--0------/

After the verse, it is exactly the same as the verse except with an extra bit over the 
which is:

Guitar 2

E--------3-------------2-/------------------------/--------3-------------2-/
B--------1---------------/------------------------/--------0---------------/
G----------------------2-/------------------------/----------------------0-/
D------------------------/------------------------/------------------------/
A------------------------/------------------------/------------------------/
E------------------------/------------------------/------------------------/

E--------------3--2--0----/
B-----------------------3-/
G-------------------------/
D-------------------------/
A-------------------------/
E-------------------------/

Verse 2

Same rhythm but with this over the top: Riff 2

E-0------------------0----/--------------3--2------/------------------------/
B-----------------------3-/--------------------3--0/-3-----------------3--0-/
G-------------------------/------------------------/------------------------/
D-------------------------/------------------------/------------------------/
A-------------------------/------------------------/------------------------/
E-------------------------/------------------------/------------------------/

E--------------3--2--0----/-0-----------------0----/--------------3--2------/
B-----------------------3-/----------------------3-/--------------------3--0/
G-------------------------/------------------------/------------------------/
D-------------------------/------------------------/------------------------/
A-------------------------/------------------------/------------------------/
E-------------------------/------------------------/------------------------/

E------------------------/------------------------/--3----5--3--------5--3--/
B--3---------------3--0--/------------------------/-------------------------/
G------------------------/------------------------/-------------------------/
D------------------------/------------------------/-------------------------/
A------------------------/------------------------/-------------------------/
E------------------------/------------------------/-------------------------/

E----------5----3--------/-3----5--3--------5--3--/--------------3--2--0----/
B------------------------/------------------------/-----------------------3-/
G------------------------/------------------------/-------------------------/
D------------------------/------------------------/-------------------------/
A------------------------/------------------------/-------------------------/
E------------------------/------------------------/-------------------------/

E----0------------0------/------------3--2--------/--------------------0----/
B--------------------3---/------------------3--0--/--3---------------3------/
G------------------------/------------------------/-------------------------/
D------------------------/------------------------/-------------------------/
A------------------------/------------------------/-------------------------/
E------------------------/------------------------/-------------------------/

E------------------------/
B------------------------/
G------------------------/
D------------------------/
A------------------------/
E------------------------/

Chorus

   (C)               (D7)                           (G)          (Emadd9)
E----0-----------------2-/-----------------------/-3--------------------2-/
B----1-----------------1-/-----------------------/-0--------------------0-/
G----0-----------------2-/-----------------------/-0--------------------0-/
D----2-----------------0-/-----------------------/-0--------------------2-/
A----3-------------------/-----------------------/-2--------------------2-/
E------------------------/-----------------------/-3--------------------0-/

E------------------------/
B------------------------/
G------------------------/   X4
D------------------------/
A------------------------/
E------------------------/

E----------------0-------/--2-------------------3---/-------------------------/
B-------------------3----/--3-------------------0---/-------------------------/
G----------------------5-/--4-------------------0---/-------------------------/
D------------------------/--5-------------------2---/-------------------------/
A------------------------/----------------------2---/-------------------------/
E------------------------/--3-------------------0--/--------------------------/
                      (and that was when i ruled the world)

Harpsichord arranged for Guitar

E-----5---5---5---5---/-5---5---5---5----/-3---3---3---3---/-3---3---3---3--/
B-------5---5---5---5-/---5---5---5---5--/---5---5---5---5-/---5---5---5---5/
G---------------------/------------------/-----------------/----------------/
D---------------------/------------------/-----------------/----------------/
A---------------------/------------------/-----------------/----------------/
E---------------------/------------------/-----------------/----------------/

    (C6)              (D7)             (G)                (Em7)

E---------5------/----------5-----/-------3--------/--------3-------/
B---------5------/----------3-----/-------3--------/--------3-------/
G---------5------/----------5-----/-------4--------/--------4-------/
D----------------/----------0-----/----------------/----------------/
A---------3------/----------------/----------------/----------------/
E----------------/----------------/-------3--------/--------0-------/

Verse

Same as other verses but with this over the top as well: Riff 3

E-3--2--3--2--3--2--3--3-/-2--3--2--3--3--2--3--2-/-3--2--3--2--3--2--3--3-/
B------------------------/------------------------/------------------------/
G------------------------/------------------------/------------------------/
D------------------------/------------------------/------------------------/
A------------------------/------------------------/------------------------/
E------------------------/------------------------/------------------------/

E-2--3--2--3--3--2--3--2-/-3--2--3--2--3--2--3--3-/-2--3--2--3--3--2--3--2-/
B------------------------/------------------------/------------------------/
G------------------------/------------------------/------------------------/
D------------------------/------------------------/------------------------/
A------------------------/------------------------/------------------------/
E------------------------/------------------------/------------------------/

                                                   (revolutionaries wait bit)
E-3--2--3--2--3--2--3--3-/-2--3--2--3--3--2--3--2-/------------------------/
B------------------------/------------------------/--1-------------------3-/
G------------------------/------------------------/------------------------/
D------------------------/------------------------/------------------------/
A------------------------/------------------------/------------------------/
E------------------------/------------------------/------------------------/

E------------------------/--3-------------------2-/------------------------/
B------------------------/------------------------/------------------------/
G------------------------/------------------------/------------------------/
D------------------------/------------------------/------------------------/
A------------------------/------------------------/------------------------/
E------------------------/------------------------/------------------------/

E------------------------/------------------------/--2------------------3--/
B--1------------------3--/------------------------/------------------------/
G------------------------/------------------------/------------------------/
D------------------------/------------------------/------------------------/
A------------------------/------------------------/------------------------/
E------------------------/------------------------/------------------------/

Interlude

E----3----3----3----3--3-/----3----3--3------3----/----3----3----3----3--3-/
B----1----1----1----1--0-/----0----0--0------0----/----1----1----1----1--0-/
G----0----0----0----0--0-/----0----0--0------0----/----0----0----0----0--0-/
D------------------------/------------------------/------------------------/
A----3----3----3----3----/------------------------/----3----3----3----3----/
E----------------------0-/----0----0--0------0----/----------------------0-/

E----3----3--3------3----/----3----3----3----3--3-/----3----3--3------3----/
B----0----0--0------0----/----1----1----1----1--0-/----0----0--0------0----/
G----0----0--0------0----/----0----0----0----0--0-/----0----0--0------0----/
D------------------------/------------------------/------------------------/
A------------------------/----3----3----3----3----/------------------------/
E----0----0--0------0----/----------------------0-/----0----0--0------0----/

E--5--5----5--5----5-----/----5----5--5----5------/------0------------2----/
B--3--3----3--3----3-----/----3----3--3----3------/------1------------1----/
G--5--5----5--5----5-----/----5----5--5----5------/------0------------2----/
D--0--0----0--0----0-----/----0----0--0----0------/------2------------0----/
A------------------------/------------------------/------3-----------------/
E------------------------/------------------------/------------------------/

E------------------------/--3----------------2----/----------------------/
B------------------------/--0----------------0----/----------------------/
G------------------------/--0----------------0----/----------------------/ x2
D------------------------/--0----------------2----/----------------------/
A------------------------/--2----------------2----/----------------------/
E------------------------/--3----------------0----/----------------------/

During the interlude, the lead bit over the top is exactly the same as Riff 3 but it has
on the last two bars:

E------5------5--5----5--/----5------5--5----5----/
B--3---------------------/------------------------/
G--2---------------------/------------------------/
D--0---------------------/------------------------/
A------------------------/------------------------/
E------------------------/------------------------/


(An honest word but that was when i ruled the world bit)

   (Cmaj7)                 (D)                       (G)

E----7----------------10-/--------------12--10----/------------------------/
B----8----------------10-/---------------------13-/--12--------------------/
G----9----------------11-/------------------------/--12--------12----------/
D----10---------------12-/------------------------/--12--------------------/
A---------------------12-/------------------------/--10--------------------/
E----8----------------10-/------------------------/------------------------/

   (Em)

E----12------------------/
B----12------------------/
G----12------------------/
D------------------------/
A------------------------/
E----12------------------/

Organ arranged for Guitar (ooh ooh bit)

   (C)              (D)                       (Gmaj7)             (Em7)

E---3----------------2---/--------------------2---/--------------------3---/
B---5----------------3---/--------------------3---/--------------------3---/
G---5----------------2---/--------------------4---/--------------------4---/
D--------------------0---/------------------------/------------------------/
A---3--------------------/------------------------/------------------------/
E------------------------/--------------------3---/--------------------0---/

E------------------------/
B------------------------/
G------------------------/   Repeat until song fades out completely
D------------------------/
A------------------------/
E------------------------/

REMEMBER TO USE A CAPO ON THE 1ST FRET
Related for Viva La Vida tab