Song name
# A B C D E F G H I J K L M N O P Q R S T U V W X Y Z

Coldplay - See You Soon tab

----------------------------------------------------------------------------
			     SEE YOU SOON - Coldplay
----------------------------------------------------------------------------
Tabbed by: Jaymz
Email: the.master.ofpuppets@hotmail.com

Tuning: E A D G B d  (capo on second)
to tune that top string to d, simply play the normal d string at the same time and tune 
till theyre an octave apart.

First of all, theres alot of versions for this tab already, but seeing as each one is 
and interepated differntly by the author, I have decided to post my take on the song. I 
mine is correct as far as the notes go. I'm not sure how it is actually played.

all notes relative to capo.

Try to strum each chord. It can also be plucked without the D string. The first chord 
is a rake.

INTRO:
|--0---0----------0/0-------0/0--\0---0----------0------|
|--3-----3---(3)--3/5--5-5--5/7--\2-----2---0h2----2----|  X3
|--4---------(4)--4/6--6-6--6/7--\2-------2-2-----------|
|--0--------------0/0-------0/0--\0-------0-------------|
|--2--------------2/4-------4/5--\0---------------------|
|-------------------------------------------------------|

|--/0--0----\0--0----\0--0----------0-------------------|
|--/8----8--\7----7--\2----2----0h2---2-----------------|
|--/9-------\7-------\2-------2-2-----------------------|
|--/0-------\0-------\0-------0-------------------------|
|--/7-------\5-------\0---------------------------------|
|-------------------------------------------------------|


Verse:
|--0---0-----/0--0-----\0---0----------0------|
|--3-----3---/7----7---\2-----2---0h2----2----|  X4
|--4---------/7--------\2-------2-2-----------|
|--0---------/0--------\0-------0-------------|
|--2---------/5--------\0---------------------|
|---------------------------------------------|



Chorus:
|--2/9--9-9--x-x--4--x-x--7--x--x--0--0-------0---0-------|
|--0/---0-0--x-x--0--x-x--0--x--x--7----7-----0h2---2-----|
|--0/--------x-x--0--x-x--0--x--x--7-------x--2-----------|
|--2/9-------x-x--4--x-x--7--x--x--0----------------------|
|----------------------------------5----------------------|
|---------------------------------------------------------|

|--2/9--9-9--x-x--4--x-x--7--x--x--0--0-------0--0--------|
|--0/---0-0--x-x--0--x-x--0--x--x--7----7-----8----8------|
|--0/--------x-x--0--x-x--0--x--x--7-------x--9-----------|
|--2/9-------x-x--4--x-x--7--x--x--0----------0-----------|
|----------------------------------5----------7-----------|
|---------------------------------------------------------|

|--2/9--9-9--x-x--4--x-x--7--x--x--0--0-------0---0-------|
|--0/---0-0--x-x--0--x-x--0--x--x--7----7-----0h2---2-----|
|--0/--------x-x--0--x-x--0--x--x--7-------x--2-----------|
|--2/9-------x-x--4--x-x--7--x--x--0----------------------|
|----------------------------------5----------------------|
|---------------------------------------------------------|

|--0--0------0---0----\0--0------0--0---------------------|
|--8----8----0h8---8--\7----7----7----7-------------------|
|--9------9--9--------\7-------7-7------7-----------------|
|--0------0--0--------\0-------0-0------------------------|
|--7---------7--------\5---------5------------------------|
|---------------------------------------------------------|


Outro: 2:19
|--0--0----0--0----0--0---------0------|
|--8----8--7----7--2----2--0h2----2----|
|--9-------7-------2-------2-----------|
|--0-------0-------0-------------------|
|--7-------5-------0-------------------|
|--------------------------------------|

Song structure i think is this:
intro
verse
chorus
1/2 intro
verse
chorus
intro
outro

| /  slide up
| \  slide down
| h  hammer-on
| p  pull-off
| ~  vibrato
| +  harmonic
| x  Mute note
============================================================================
Tap to rate this tab
 
# A B C D E F G H I J K L M N O P Q R S T U V W X Y Z