Song name
# A B C D E F G H I J K L M N O P Q R S T U V W X Y Z

Coldplay - Life Is For Living tab

TUNING - STANDARD with capo on fret 1
                                                                                         
                                                                                        
                                                                       A       = x02220 |
 F#m7   = 242222 |
 E6sus4 = 022220 |
 E      = 022100 |
 D      = xx0232 |
 Bm7    = x24232 |
 Asus4  = x02230 |
 E7     = 022130 |
 D5     = xx023x |
 Dmaj9  = xx0220 |
 ----------------                                                                        
                      VERSE 1:

    A     F#m7  E6sus4   E      D     Bm7     A  Asus4 A
 |---------------------------|----------------------------|
 |----2------2------2----0---|----3------3------2--3--2---|
 |----2------2------2----1---|----2------2------2--2--2---|
 |---------------------------|--0-------------------------| x4
 |--0------------------------|------4--2---2--0-------0---|
 |------4--2---2--0----0-----|----------------------------|

 Now I never meant to do you wrong,
 Thats what I came here to say,
 But if I was wrong then I'm sorry,
 But don't let it stand in our way,
 'Cause my head just aches when I think of,
 The things that I shouldn't have done,
 But life is for living we all no,
 And I don't want to live it alone.

 BREAK:

       E    E7
 Sing ah ah ah,
      D5   Dmaj9
 Sing ah ah ah,
               E    E7
 And you sing ah ah ah,

 OUTRO:

    A     F#m7  E6sus4   E      D     Bm7     A  Asus4 A
 |---------------------------|----------------------------|
 |----2------2------2----0---|----3------3------2--3--2---|
 |----2------2------2----1---|----2------2------2--2--2---|
 |---------------------------|--0-------------------------| x2
 |--0------------------------|------4--2---2--0-------0---|
 |------4--2---2--0----0-----|----------------------------|
Tap to rate this tab
# A B C D E F G H I J K L M N O P Q R S T U V W X Y Z