Song name
# A B C D E F G H I J K L M N O P Q R S T U V W X Y Z

Coldplay - Spies tab

SPIES

Tune all strings flat, then both E-strings down to D.
I've only tabbed the rhythm section for now. Any help with the lead part would be appreciated...


INTRO and VERSE

d--0----[--0--0---0---0--]---0--0---0----0---
B--3----[--x--x---x---x--]---x--x---x----x---
G--2----[--7--5--10---9--]---7--5--10---12---
D--0----[--5--3---8---7--]---5--3---8---10---
A--0----[--5--3---8---7--]---5--3---8---10---
D--0----[--5--3---8---7--]---5--3---8---10---
             repeat x 4


CHORUS

d---0---0---0---0---
B---3---6---1---3---
G---5---9---2---0---
D---0---0---0---5---
A---5---8---3---5---
D---0-----------5---


MIDDLE EIGHT

d---0---0--0--0--0---0---0---0--0---
B---x---x--x--x--x---x---x---x--x---
G---7--12--7--9--7--12--10--12--9---
D---5--10--5--7--5--10---8--10--7---
A---5--10--5--7--5--10---8--10--7---
D---5--10--5--7--5--10---8--10--7---


OUTRO

d--0---0--0---0---
B--3---x--x---x---
G--2--10--9--12---
D--0---8--7--10---
A--0---8--7--10---
D--0---8--7--10---
Tap to rate this tab
 
# A B C D E F G H I J K L M N O P Q R S T U V W X Y Z