Song name
# A B C D E F G H I J K L M N O P Q R S T U V W X Y Z

Coldplay - The Scienstist tab

::XxxxxxxxXxxxxxxxxxxXxxxxxxxXxxxxxxxxXxxxxxxxxxxXxxxxxxX::
[[[[[[[[[[[[[[[[[[[www.COLDPLAY.8M.COM]]]]]]]]]]]]]]]]]]]
::XxxxxxxxXxxxxxxxxxxXxxxxxxxXxxxxxxxxXxxxxxxxxxxXxxxxxxX::
...........................................................
			
     	       Coldplay - The Scientist      			
..........................................................
::XxxxxxxxXxxxxxxxxxxXxxxxxxxXxxxxxxxxXxxxxxxxxxxXxxxxxxX::
[[[[[[[[[[[[[[[[[[www.COLDPLAY.8M.COM]]]]]]]]]]]]]]]]]]]]
::XxxxxxxxXxxxxxxxxxxXxxxxxxxXxxxxxxxxXxxxxxxxxxxXxxxxxxX::
..........................................................
Cancion  :  The Scientis
Artista  :  Coldplay
Disco    :  A rush of blood to the head
Tableado :  Emilio Cerda ; Astrotrotote@hotmail.com
..........................................................
ESTE ES UNO DE LOS TEMAS MAS BUENOS DE SU  DISCO, YA   QUE 
CHRIS MARTIN LOS VUELVE A SORPRENDER CON SU HERMOSA TOCADA 
EN PIANO, ESTE ES MI VERSION DEL TEMA " The Scientis "  DE 
" COLDPLAY "  ESPERO  QUE  LES  GUSTE, Y  SI  QUIEREN  MAS 
INFORMACION  U  OTROS T ABS  DE  COLDPLAY  SOLO TIENEN QUE , 
ESCRIBIRME A: ASTROTOTOTE@HOTMAIL.COM. 
Visita :"wwww.coldplay.8m.com"
...........................................................
::XxxxxxxxXxxxxxxxxxxXxxxxxxxXxxxxxxxxXxxxxxxxxxxXxxxxxxX::
[[[[[[[[[[[[[[[[[[[[[[[[[COLDPLAY]]]]]]]]]]]]]]]]]]]]]]]]
::XxxxxxxxXxxxxxxxxxxXxxxxxxxXxxxxxxxxXxxxxxxxxxxXxxxxxxX::
		 wwww.coldplay.8m.com
  	 
---------------------Intro(solo piano)-----------------------
	Dm		     A#M 		  F

e--5---5---5---5----|--6---6---6---6/8--|--5---5---5---5----|
B--6---6---6---6----|--6---6---6---6/8--|--6---6---6---6----|
G----7---7---7---7--|----7---7---7------|----5---5---5---5--|
D-------------------|-------------------|-------------------|
A-------------------|-------------------|-------------------|
E-------------------|-------------------|-------------------|
totote
	  C

e--3---3---3---3----|--\
B--5---5---5---5----|-- \
G----5---5---5---5--|--  \(X2)
D-------------------|--  /
A-------------------|-- /
E-------------------|--/
*[Nota; comienza a cantar aqui..00:28]*
totote
---------------------(piano simple)-------------------------
          00:28
Dm	   \ / 	     A#M 		  F

e--5---5---5---5----|--6---6---6---6----|--5---5---5---5----|
B--6---6---6---6----|--6---6---6---6----|--6---6---6---6----|
G----7---7---7---7--|----7---7---7---7--|----5---5---5---5--|
D-------------------|-------------------|-------------------|
A-------------------|-------------------|-------------------|
E-------------------|-------------------|-------------------|
..Come up to meet ya, tell you I'm sorry You don't know how..
totote	  
	   C

e--3---3---3---3----|--\
B--5---5---5---5----|-- \
G----5---5---5---5--|--  \(X4)
D-------------------|--  /
A-------------------|-- /
E-------------------|--/
lovely you are..

*[Nota;los numeros(1,2,3,4)son para que cordines con la voz]*
*[primero haces piano simple con 1 luego 2,3 y finalmente 4]*
totote
	1(piano simple)
...Come up to meet ya, tell you I'm sorry
You don't know how lovely you are
	
	 2(piano simple)
I had to find you, tell you I need ya
And tell you I set you apart
totote
	 3(piano simple)
Tell me your secrets, and nurse me your questions
Oh lets go back to the start

	4(piano simple)
Running in circles, coming in tails
Heads on a science apart 

*[Nota;fijate bien en el cambio que hay en el coro ya que]*
*[los numeros te confunden.  Es facil de apremder.....   ]*

------------------------(PIANO CORO)------------------------
    A#M 		     A#M 		  F

e--6---6---6---6----|--6---6---6---6----|--5---5---5---5----|
B--6---6---6---6----|--6---6---6---6----|--6---6---6---6----|
G----7---7---7---7--|----7---7---7---7--|----5---5---5---5--|
D-------------------|-------------------|-------------------|
A-------------------|-------------------|-------------------|
E-------------------|-------------------|-------------------|
....Nobody said... it was e....asy...... It's such a shame..          
totote	  
	   C

e--3---3---3---3----|--
B--5---5---5---5----|-- 
G----5---5---5---5--|--  
D-------------------|--  
A-------------------|-- 
E-------------------|--
 ..for us to part...
totote
 A#M 		     A#M 		  F

e--6---6---6---6----|--6---6---6---6----|--5---5---5---5----|
B--6---6---6---6----|--6---6---6---6----|--6---6---6---6----|
G----7---7---7---7--|----7---7---7---7--|----5---5---5---5--|
D-------------------|-------------------|-------------------|
A-------------------|-------------------|-------------------|
E-------------------|-------------------|-------------------|
....Nobody said... it was e....asy......   No one ever....         
totote  
	   C			C2
				       *     
e--3---3---3---3----|--1---1---1---1---1----|-1---1---1---1-|
B--5---5---3---3----|--3---3---3---3---3----|-3---3---3---3-|
G----5---5---5---5--|----0---0---0---0---0--|---0---0---0--0|
D-------------------|-----------------------|---------------|  
A-------------------|-----------------------|---------------|
E-------------------|-----------------------|---------------|
..said it would be  this hard....Oh take me back to the start
totote
*[Nota; Aqui(*) entra guitarra acustica]*

----------(guitarra acustica)
	 c
e-------------3------|--
B----------1---------|--
G-------0------------|--
D----2---------------|--
A--3-----------------|--
E--------------------|--
*[Ahora haz piano simple una vez y luego "piano final"]*
totote
------------------------(piano final)------------------------
	Dm		     A#M 		  F

e--5---5---5---5----|--6---6---6---6/8--|--5---5---5---5----|
B--6---6---6---6----|--6---6---6---6/8--|--6---6---6---6----|
G----7---7---7---7--|----7---7---7------|----5---5---5---5--|
D-------------------|-------------------|-------------------|
A-------------------|-------------------|-------------------|
E-------------------|-------------------|-------------------|
totote
	C	              C2                 C2
		       
e--3---3---3---3----|--1---1---1---1---1----|-1---1---1---1-|
B--5---5---3---3----|--3---3---3---3---3----|-3---3---3---3-|
G----5---5---5---5--|----0---0---0---0---0--|---0---0---0--0|
D-------------------|-----------------------|---------------|  
A-------------------|-----------------------|---------------|
E-------------------|-----------------------|---------------|	  

[Nota; Aqui(*) entra guitarra acustica]
				       
-------------(guitarra acustica)          
				       
e-------------3------|		       
B----------1---------|		       
G-------0------------|		      
D----2---------------|		       
A--3-----------------|		       
E--x-----------------|		       

-----------(Acordes usados[GUITARRA ACUSTICA]-------------

  Dm     L#M	   f 

e|--5--| |--6--| |--1--|		       
B|--6--| |--6--| |--1--| 
G|--7--| |--7--| |--2--|
D|--7--| |--8--| |--3--|
L|--5--| |--8--| |--3--|
E|--x--| |--6--| |--1--|

-----------(Acordes usados[GUITARRA ELECTRICA]------------
	D		L#		   F (solo F por 2)
e|--X---------|--X------------------|.(--X----------------|	 
B|--X---------|--X------------------|.(--X----------------| 
G|--X---------|--X------------------|.(--X----------------|
D|--7-8-7-8---|--8-8-8-8-8-8-8-8-8--|.(--7-7-8-7-7-7-8-7--|
L|--8-8-8-8---|--8-8-8-8-8-8-8-8-8--|.(--8-8-8-8-8-8-8-8--|
E|--x---------|--6-6-6-6-6-6-6-6-6--|.(--8-8-8-8-8-8-8-8--|
 Ooooohhhhhhh............
e|--X---------|--X------------------|.(--X----------------|	 
B|--X---------|--X------------------|.(--X----------------| 
G|--X---------|--X------------------|.(--X----------------|
D|--7-8-7-8---|--8-8-8-8-8-8-8-8-8--|.(--7-7-8-7-7-7-8-7--|
L|--5-5-5-5---|--8-8-8-8-8-8-8-8-8--|.(--8-8-8-8-8-8-8-8--|
E|--x---------|--6-6-6-6-6-6-6-6-6--|.(--8-8-8-8-8-8-8-8--|
 Ooooohhhhhhh............




Coldplay - The Scientist 

-Intro(solo piano)

-(piano simple)
   VERSO
Dm		   /A#M 		 

Come up to meet ya, tell you I'm sorry
		   F        /C
You don't know how lovely you are
Dm		   /A#M 	
I had to find you, tell you I need ya
  	 F        /C
And tell you I set you apart
Dm		   /A#M 	                 F
Tell me your secrets, and nurse me your questions
               /C
Oh lets go back to the start
Dm		   /A#M           F
Running in circles, coming in tails
	      /C
Heads on a science apart 

(PIANO CORO)
  coro
A#M       A#M        F
Nobody said it was easy
	       /C
It's such a shame for us to part
Nobody said it was easy
No one ever said it would be this hard
Oh take me back to the start.

*[Ahora haz piano simple una vez y luego "piano final"]*
 VERSO
I was just guessing at numbers and figures
Pulling the puzzles apart
Questions of science, science and progress
Do not speak as loud as my heart
And tell me you love me, come back and haunt me
Oh and I rush to the start
Running in circles, chasing tails
Coming back as we are

  coro
Nobody said it was easy
Oh it's such a shame for us to part
Nobody said it was easy
No one ever said it would be so hard
I'm going back to the start
 (ENTRA GUITARRA ELECTRICA)

(Acordes usados[GUITARRA ELECTRICA]

VERSO
Ooooohhhhhhh (x4) (El FIN ES EN F)
   Dm      L#M	
e|--{5--| |--{6--| 	       
B|--{6--| |--{6--|  
G|--{7--| |--{7--| 
D|--{7--| |--{8--| 
L|--{5--| |--{8--| 
E|--{x--| |--{6--| 
         F
e|------------1--| 
B|----------1----| 
G|--------2------|----(FIN DE LA CANCION)
D|------3--------|
L|----3----------|
E|--1------------|
 "End"
--------------------------
{--esto significa rasgeo)
totote---esto significa mi apodo)

                   wwww.coldplay.8m.com		
           Tableado :Astrototote@hotmail.com
...........................................................	
::XxxxxxxxXxxxxxxxxxxXxxxxxxxXxxxxxxxxXxxxxxxxxxxXxxxxxxX::
[[[[[[[[[[[[[[[[[[[[[COLDPLAY.8M.COM]]]]]]]]]]]]]]]]]]]]]]]
::XxxxxxxxXxxxxxxxxxxXxxxxxxxXxxxxxxxxXxxxxxxxxxxXxxxxxxX::

Tap to rate this tab
# A B C D E F G H I J K L M N O P Q R S T U V W X Y Z