Coldplay - Charlie Brown tab

E|------6-------6-----6---6---6--6-|
B|--4s6--6--3s4---4s3----3--3---3--|
G|---------------------------------|
D|---------------------------------|
A|---------------------------------|
E|---------------------------------|

E|---------------------------------------------|
B|-----3----3----3-----------3----3----3-------|
G|--3h5--3h5--3h5---5--3--3h5--3h5--3h5---5--3-|
D|----------------------5----------------------|
A|---------------------------------------------|
E|---------------------------------------------|
Tap to rate this tab
 
# A B C D E F G H I J K L M N O P Q R S T U V W X Y Z