Guitaretab - guitar tabs
Song name
# A B C D E F G H I J K L M N O P Q R S T U V W X Y Z

Coldplay - You Only Live Twice tab

Intro

e-7-6h7p6--7-6h7p6--7-6h7p6--7-6h7p6--7-6h7p6--7--------------|
B-------------------------------------------------------------|
G-------------------------------------------------------------|
D-------------------------------------------------------------|
A-------------------------------------------------------------|
E-------------------------------------------------------------|

[ Tab from: http://www.guitaretab.com/c/coldplay/35274.html ]
Riff 1
e--19-18h19p18---16h18p16--------17-16h17p16------------------|
B--------------------------19----------------19h21p19--17-----|
G-------------------------------------------------------------|
D-------------------------------------------------------------|
A-------------------------------------------------------------|
E-------------------------------------------------------------|

Riff 2
e-7-6h7p6-4h6p4----5-4h5p4------------------------|
B---------------7----------7h9p7-5------5h7-------|
G-------------------------------------------------|
D-------------------------------------------------|
A-------------------------------------------------|
E-------------------------------------------------|
Related for You Only Live Twice tab
×
Best way to learn
"You Only Live Twice"