Song name
# A B C D E F G H I J K L M N O P Q R S T U V W X Y Z

Coldplay - Us Against The World tab

US AGAINST THE WORLD
CAPO 3
Standard tuning

INTRO
e|-----5-4-5-------5-4-5-------5-4-5-------5-4-5---|
B|---5-------5---5-------5---5-------5---5-------5-|
G|-2-----------2-----------2-----------2-----------|
D|-------------------------------------------------|
A|-------------------------------------------------|
E|-------------------------------------------------|
   A           Asus2       A           Asus2

e|-----4-2-4-------4-2-4-------4-2-4-------4-2-4---|
B|---5-------5---5-------5---5-------5---5-------5-|
G|-4-----------4-----------4-----------4-----------|
D|-------------------------------------------------|
A|-------------------------------------------------|
E|-------------------------------------------------|
   E           Esus4       E           Esus4

e|-----5-4-5-------5-4-5-------5-4-5-------5-4-5---|
B|---5-------5---5-------5---5-------5---5-------5-|
G|-2-----------2-----------2-----------2-----------|
D|-------------------------------------------------|
A|-------------------------------------------------|
E|-------------------------------------------------|
   D           Dsus2       D           D

e|-----5-4-5-------5-4-5-------4-2-4-------4-2-4---|-5-|
B|---5-------5---5-------5---5-------5---5-------5-|-5-|
G|-2-----------2-----------4-----------4-----------|-2-|
D|-------------------------------------------------|---|
A|-------------------------------------------------|---|
E|-------------------------------------------------|---|
   A           Asus2       E           Esus4         A

CHORDS

e|--0--|--0--|--0--|--0--|--2--|--0--|--0--|
B|--2--|--0--|--0--|--0--|--3--|--3--|--2--|
G|--2--|--2--|--1--|--2--|--2--|--2--|--2--|
D|--2--|--2--|--2--|--2--|--0--|--0--|--2--|
A|--0--|--0--|--2--|--2--|--x--|--x--|--4--|
E|--x--|--x--|--0--|--0--|--x--|--x--|--0--|
    A   Asus2   E   Esus4   D   Dsus2 Aadd9

Strumming pattern
D' dudu
Hit the bottom note harder first

    A            Asus2         A      Asus2
Oh morning come bursting the clouds amen
 E              Esus4           E    Esus4
Lift off this blindfold let me see again
      D             Dsus2          D        D
And bring back the water let your ships roll in
       A        Asus2      E   Esus4
In my heart she    left a hole


     A                  Asus2         A        Asus2
The tightrope that I'm walking just sways and ties
     E             Esus4           E       Esus4
The devil as he's talking to those angel's eyes
    D               Dsus2             D         D
And I just want to be there when the lightning strikes
         A        Asus2       E  Esus4
And the saints go    marching in



           A     Asus2    A    Asus2       E Esus4 E 
And sing slooow-oooooow-oooow-oooow it down
         Esus4        D    Dsus2  D  
Through chaos as it swirls
      D               A   Asus2 E  Esus4  
It's us against the world.



        A          Asus2      A       Asus2
Like a river to a raindrop I lost a friend
    E            Esus4       E     Esus4
My drunken as a Daniel in a lion's den
       D               Dsus2        D     D
And tonight I know it all has to begin again
        A         Asus2         E  Esus4
So whatever you do   don't let go.


                  A     Asus2
And if we could float away
  A            Asus2             E     Esus4
Fly up to the surface and just start again
     E               Esus4  
And lift off before trouble
       D               Dsus2
Just erodes us in the rain
       D               D
Just erodes us in the rain
       A              Asus2           E     Esus4
Just erodes us and erodes us in the rain.
                  (see roses?)

ADD INTRO ON SECOND GUITAR (LOOK DOWN)
        A    Asus2    A    Asus2       E Esus4 E Esus4 
Sing slooow-ooooow-ooooow-oooow it down
      A    Asus2    A    Asus2       E Esus4 E Esus4 
Oh slooow-ooooow-ooooow-oooow it down

A Asus2 A Asus2 
E Esus4 E Esus4
D Dsus2 D D 
A Asus2 E Esus4

                      D    D Aadd9 Aadd9
Through chaos as it swirls
                     E    Esus4 E Esus4
It's us against the world
                      D   D  Aadd9 Aadd9
Through chaos as it swirls
                     E
It's us against the world.

GUITAR 2 at Sing slooow-ooow-ooow...
Sing
e|-----5-4-5-------5-4-5-------5-4-5-------5-4-5---|
B|---5-------5---5-------5---5-------5---5-------5-|
G|-2-----------2-----------2-----------2-----------|
D|-------------------------------------------------|
A|-------------------------------------------------|
E|-------------------------------------------------|
   A           Asus2       A           Asus2
  slooow      -ooow       -ooow       -ooow it down

e|-----4-2-4-------4-2-4-------4-2-4-------4-2-4---|
B|---5-------5---5-------5---5-------5---5-------5-|
G|-4-----------4-----------4-----------4-----------|
D|-------------------------------------------------|
A|-------------------------------------------------|
E|-------------------------------------------------|
   E           Esus4       E           Esus4

e|-----5-4-5-------5-4-5-------5-4-5-------5-4-5---|
B|---5-------5---5-------5---5-------5---5-------5-|
G|-2-----------2-----------2-----------2-----------|
D|-------------------------------------------------|
A|-------------------------------------------------|
E|-------------------------------------------------|
   A           Asus2       A           Asus2
Oh slooow      -ooow       -ooow       -ooow it down

e|-----4-2-4-------4-2-4-------4-2-4-------4-2-4---|
B|---5-------5---5-------5---5-------5---5-------5-|
G|-4-----------4-----------4-----------4-----------|
D|-------------------------------------------------|
A|-------------------------------------------------|
E|-------------------------------------------------|
   E           Esus4       E           Esus4

e|-----5-4-5-------5-4-5-------5-4-5-------5-4-5---|
B|---5-------5---5-------5---5-------5---5-------5-|
G|-2-----------2-----------2-----------2-----------|
D|-------------------------------------------------|
A|-------------------------------------------------|
E|-------------------------------------------------|
   A           Asus2       A           Asus2

e|-----4-2-4-------4-2-4-------4-2-4-------4-2-4---|
B|---5-------5---5-------5---5-------5---5-------5-|
G|-4-----------4-----------4-----------4-----------|
D|-------------------------------------------------|
A|-------------------------------------------------|
E|-------------------------------------------------|
   E           Esus4       E           Esus4

e|-----5-4-5-------5-4-5-------5-4-5-------5-4-5---|
B|---5-------5---5-------5---5-------5---5-------5-|
G|-2-----------2-----------2-----------2-----------|
D|-------------------------------------------------|
A|-------------------------------------------------|
E|-------------------------------------------------|
   D           Dsus2       D           D

e|-----5-4-5-------5-4-5-------4-2-4-------4-2-4---|
B|---5-------5---5-------5---5-------5---5-------5-|
G|-2-----------2-----------4-----------4-----------|
D|-------------------------------------------------|
A|-------------------------------------------------|
E|-------------------------------------------------|
   A           Asus2       E           Esus4

e|-----4-2-4---|
B|---5-------5-|
G|-4-----------|
D|-------------|
A|-------------|
E|-------------|
   Esus4
       Through chaos as it swirls...
Tap to rate this tab
 
# A B C D E F G H I J K L M N O P Q R S T U V W X Y Z