Song name
# A B C D E F G H I J K L M N O P Q R S T U V W X Y Z

Coldplay - Fix You Live tab

Help us improve GuitareTab! Take a short survey!
Standard Tuning: Tabbed from low E on top, high e on bottom.

E
A
D
G
B
e
No guitar until Chorus in the Live Version I listened to...

Chorus
--------------------------------------------------|
--------------------------------------------------|
-9-11----9-11----9-11----9-11-----9-11------------|
-------9-------9-------9-------11-------11--------|
--------------------------------------------------|
--------------------------------------------------|

Then: After I will try and fix you.

----------------|
----------------|
-10-----10------|     Repeat through Verse 2 until the Chorus.
-----10-----9---|
----------------|
----------------|

Chorus

Then: When the song begins to pick up

-------------------------------------------------------------|
-------------------------------------------------------------|
-------------------------------------------------------------|
-10-10-10-10-10-10-10-10-10-10-10-10~15-15-15-15-------------|
-------------------------------------------------------------|
-------------------------------------------------------------|

Repeat the above tab once more, then

-----------------------------------------------------------------------------|
-----------------------------------------------------------------------------|
-----------------------------------------------------------------------------|
10-10-10-10-10-10-10-10-10-10-10-10~15-15-15-15~10-10-10-10~9 (Pluck it 12X)-|
-----------------------------------------------------------------------------|
-----------------------------------------------------------------------------|

When the song slows down again:

----------------|
----------------|
-10-----10------|     Until the end of the song.
-----10-----9---|
----------------|
----------------|
Related for Fix You Live tab