Song name
# A B C D E F G H I J K L M N O P Q R S T U V W X Y Z

Colin Hay - Down Under Acoustic tab

There's a few different versions of this song floating around youtube, I basically just
the 2 that I liked the most and chucked them both together, so if you're trying to
to the song and play along with it, it won't work perfectly. This is just the way I like 
play it and it works for me. Thanks :)


Intro/Verse:

-------------------------------------------------------------|
-------1-0------------5--3--------------1-0------------------|
-------2-2----------0------0------------2-2------------------|
-----2------------4---------4---------2----------------------|
---0---------------------------------0-----------------------|
---------------5---------------------------------------------|


-------------------------------------------------------------|
-------------------------------------------------------------|
------0--------0---------------------------------------------|
-----2--------4----------------------------------------------|
----3----s---5-----3-----------------------------------------|
-------------------------------------------------------------|

Chorus:

-------------------------------------------------------------|
-------1---------------5--3------------1-0-------------------|
-----0---0---0--------0----0--0--------2-2-------------------|
----2-----2----------4------4---------2----------------------|
---3-------3-------------------------0-----------------------|
-------------------5-----------------------------------------|

-------------------------------------------------------------|
-------------------------------------------------------------|
------0--------0---------------------------------------------|
-----2--------4----------------------------------------------|
----3----s---5-----3-----------------------------------------|
-------------------------------------------------------------|
Tap to rate this tab
 
# A B C D E F G H I J K L M N O P Q R S T U V W X Y Z