Collapsed - Natural Disaster tab

Intro: 8 times on clean then 8 times on distortion on last one let ring.
Drums enter when the distortion does
|---------------------------------------------------|
|---------------------------------------------------|
|---------------------------------------------------|
|---------------------------------------------------|
|--7-7-7-5-5-5-3-3-3-2-2-2-2-2-2-2-2----------------|
|--0-0-0-0-0-0-0-0-0-0-0-0-0-0-0-0-0----------------|
Verse play 8 times distorted(play each chord 8 times palm muted)
|-------------------------|
|-------------------------|
|-------------------------|
|--2----4-----6-----7-----|
|--2----4-----6-----7-----|
|--0----2-----4-----5-----|
Chorus play twice
|------------------------------------------------------------|
|------------------------------------------------------------|
|------------------------------------------------------------|
|--4-----------7----------4-----------7--------6-------------|
|--4-x16-------7---x16----4x16-------7-x14----6---x2--------|
|--2-----------5----------2-----------5--------4-------------|

Play 4 times after Chorus
|---------------------------------------------------|
|---------------------------------------------------|
|---------------------------------------------------|
|---------------------------------------------------|
|--7-7-7-5-5-5-3-3-3-2-2-2-2-2-2-2-2----------------|
|--0-0-0-0-0-0-0-0-0-0-0-0-0-0-0-0-0----------------|
Verse play 8 times distorted(play each chord 8 times palm muted)
|--------------------------|
|--------------------------|
|--------------------------|
|--2----4-----6-----7------|
|--2----4-----6-----7------|
|--0----2-----4-----5------|
Chorus play twice
|------------------------------------------------------------|
|------------------------------------------------------------|
|------------------------------------------------------------|
|--4-----------7----------4-----------7--------6-------------|
|--4-x16-------7---x16----4x16-------7-x14----6---x2--------|
|--2-----------5----------2-----------5--------4-------------|
Tap to rate this tab
 
# A B C D E F G H I J K L M N O P Q R S T U V W X Y Z