Song name
# A B C D E F G H I J K L M N O P Q R S T U V W X Y Z

Collective Soul - Run tab

some of the other tabs were almost right.
this one is accurate and i included the solo.
*all guitars tune down 1/2 step* (Eb Ab Db Gb Bb eb)

intro: C

verse:
C
    are these times contagious?
Am                               F
    ive never been this bored before
                      C       G
is this the prize ive waited for
C
    now with the hours passing
Am                                 F
    theres nothing left here to insure
                 C      G
i long to find a messenger

chorus:
F                  C           G
    have i got a long way to run?
F                  C           G
    have i got a long way to run?
       F C G
yeah i run
       F C G
yeah i run

verse:
C
    is there a cure among us?
Am                            F
    from this processed sanity
                  C           G
i waken with each voice that sings
C
    now in this world of purchase
Am                             F
    im going to buy back memories
                   C      G
to awaken some old qualities


electric guitar during chorus:

|----------1----------------|----------3--(3)~~~~~~~~~|-----3---------------|
|-------1-------------------|-------1-----------------|-0h1---1--0----------|
|----0----------------------|----0--------------------|-----------------0---|
|-3-------------------------|-2-----------------------|---------------------|
|---------------------------|-------------------------|---------------------|
|---------------------------|-------------------------|---------------------|
             have i got a long  way               to run 


|-----3---------------------|
|-0h1----1---0--------------|
|----------------------0----|
|---------------------------|
|---------------------------|
|---------------------------|

solo:

|-8\~~~~------------|-8\~~~~------------|-8--7---5----7~~~|~~~~~~~~~~~(7)/8-|
|-------5~~~~5---5--|-------5~~~~5---5--|-----------------|-----------------|
|-------------------|-------------------|-----------------|-----------------|
|-------------------|-------------------|-----------------|-----------------|
|-------------------|-------------------|-----------------|-----------------|
|-------------------|-------------------|-----------------|-----------------|

|~~~~~~~~~~~~~~~~~7\|
|-------------------|
|-------------------|
|-------------------|
|-------------------|
|-------------------|                        by Julia
Tap to rate this tab
 
# A B C D E F G H I J K L M N O P Q R S T U V W X Y Z