Song name
# A B C D E F G H I J K L M N O P Q R S T U V W X Y Z

Collective Soul - Under Heavens Skies tab

Just a slight difference to that last tab for the intro and verse.
oholibama@hotmail.com


Intro/Verse
    E
E---------------------------------------|
B---------------------------------------|
G---------------------------------------|
D---------------------------------------|
A---7-7-7-9-9-9-9-11-11-11-11-12-11-9-7-|
E---0-0-0-0-0-0-0-0--0--0--0--0--0--0-0-|

  C#m
e-------------------------------|
B-------------------------------|
G-------------------------------|
D-2-2-2-4-4-4-4-6-6-6-6-7-6-4-2-|
A-4-4-4-4-4-4-4-4-4-4-4-4-4-4-4-|
E-------------------------------|

  A
e-------------------------------|
B-------------------------------|
G-------------------------------|
D-2-2-2-4-4-4-4-6-6-6-6-7-6-4-2-|
A-0-0-0-0-0-0-0-0-0-0-0-0-0-0-0-|
E-------------------------------|

  E
E-------------------------------------|
B-------------------------------------|
G-------------------------------------|
D-------------------------------------|
A-7-7-7-9-9-9-9-11-11-11-11-12-11-9-7-|
E-0-0-0-0-0-0-0-0--0--0--0--0--0--0-0-|


[verse 1]
             E
Whenever I taste
                C#m
Honey from your lips
                 A
It's a moment of purpose
              E
Only you can give

Whatever I hear
               C#m
Whatever I may see
             A
What ever my cause dear
              E
I know you'll believe


[chorus]
E                          C#m        A
'Cause you're beautiful my love
                E
When I close my eyes
E                          C#m        A
Yeah You're beautiful my love
                 E
Under Heaven's skies


[verse 2]
              E
If ever you think
               C#m
Callous is the night
                      A
I'll comfort you with silence
                  E
Till the morning light

Wherever you turn
                 C#m

Wherever you may roam
               A
Wherever you conquer
                    E
I'll always be your home


[chorus]
Tap to rate this tab
# A B C D E F G H I J K L M N O P Q R S T U V W X Y Z